Guitar Tabs
song title    band name

Join Us Today!

Don't strum alone...
be a part of the largest online Christian music community. Browse thousands of guitar tabs and chat w/ musicians like yourself.


It's Free!

This tab has been rated a 4.00 out of 5 for accuracy. (6 votes)Sorry, but you must be logged in to rate this tab.
Click here to log-in, or you can click here to register.
(Registration is free)

All songs owned by corresponding publishing company. If you make copies of any song on this website, be sure to report your usage to CCLI.
Submitted by: joellaw44

Song: Heartstrings Come Undone
Artist: Demon Hunter

I felt all the other tabs were either a little off or incomplete, so
here's the whole thing.

Drop D, Tune 1 1/2 steps down - B,F#,B,E,G#,C#


 Intro
  Q=95
|----------20-(20)----|----------20-(20)----|
|----20---------------|----20---------------|
|-21----21------------|-21----21------------|
|---------------------|---------------------|
|---------------------|---------------------|
|---------------------|---------------------|


|----------19-(19)----|----------19-(19)----|
|----20---------------|----20---------------|
|-19----19------------|-19----19------------|
|---------------------|---------------------|
|---------------------|---------------------|
|---------------------|---------------------|


|----------19-(19)----|----------19-(19)----|
|----19---------------|----19---------------|
|-19----19------------|-19----19------------|
|---------------------|---------------------|
|---------------------|---------------------|
|---------------------|---------------------|


|---------------------|------------------------|
|----------20-(20)----|----------20-(20)-------|
|----21---------------|----21------------------|
|-19----19------------|-19----19---------------|
|---------------------|------------------------|
|---------------------|------------------------|
|
|---------------------|------------------------|
|---------------------|------------------------|
|---------------------|------------------------|
|---------------------|------------------2-2-2-|
|---------------------|------------------2-2-2-|
|---------------------|------------------2-2-2-|



|-------------------|-------------------|
|-------------------|-------------------|
|-------------------|-------------------|
|-2-2-2-2--2--2-2-2-|-2-2-2-2--2--2-2-2-| (With the high part
|-2-2-2-2--2--2-2-2-|-2-2-2-2--2--2-2-2-|   still playing)
|-2-2-2-2--2--2-2-2-|-2-2-2-2--2--2-2-2-|
|
|
|-------------------|-------------------|
|-------------------|-------------------|
|-------5-(5)-------|-------5-(5)-------|
|---5---------------|---5---------------|
|-7---7-------------|-7---7-------------|
|-------------------|-------------------|


|-------------------|-------------------|
|-------------------|-------------------|
|-------------------|-------------------|
|-5-5-5-5--5--5-5-5-|-5-5-5-5--5--5-5-5-|
|-5-5-5-5--5--5-5-5-|-5-5-5-5--5--5-5-5-|
|-5-5-5-5--5--5-5-5-|-5-5-5-5--5--5-5-5-|
|
|-------------------|-------------------|
|-------------------|-------------------|
|-------4-(4)-------|-------4-(4)-------|
|---5---------------|---5---------------|
|-5---5-------------|-5---5-------------|
|-------------------|-------------------|


|-------------------|-------------------|
|-------------------|-------------------|
|-------------------|-------------------|
|-0-0-0-0--0--0-0-0-|-0-0-0-0--0--0-0-0-|
|-0-0-0-0--0--0-0-0-|-0-0-0-0--0--0-0-0-|
|-0-0-0-0--0--0-0-0-|-0-0-0-0--0--0-0-0-|
|
|-------------------|-------------------|
|-------------------|-------------------|
|-------4-(4)-------|-------4-(4)-------|
|---4---------------|---4---------------|
|-5---5-------------|-5---5-------------|
|-------------------|-------------------|


|-------------------|-------------------|
|-------------------|-------------------|
|-------------------|-------------------|
|-7-7-7-7--7--7-7-7-|-7-7-7-7--7--7-7-7-|
|-7-7-7-7--7--7-7-7-|-7-7-7-7--7--7-7-7-|
|-7-7-7-7--7--7-7-7-|-7-7-7-7--7--7-7-7-|
|
|-------------------|-------------------|
|-------------------|-------------------|
|-------0-(0)-------|-------0-(0)-------|
|---2---------------|---2---------------|
|-0---0-------------|-0---0-------------|
|-------------------|-------------------|


   Verse
||-----------------|----------------|----------------|----------------|
||o----------------|----------------|----------------|----------------|
||--------5-(5)----|-------5-(5)----|-------4-(4)----|-------4-(4)----|
||----5------------|---5------------|---5------------|---5------------|
||o-7---7----------|-7---7----------|-5---5----------|-5---5----------|
||-----------------|----------------|----------------|----------------|


|----------------|----------------|----------------|-----------------||
|----------------|----------------|----------------|----------------o||
|-------4-(4)----|-------4-(4)----|-------0-(0)----|-------0-(0)-----||
|---4------------|---4------------|---2------------|---2-------------||
|-5---5----------|-5---5----------|-0---0----------|-0---0----------o||
|----------------|----------------|----------------|-----------------||


 Pre-Chorus
|-----------------|-------------------|-----------------|-------------------|
|-----------------|-------------------|-----------------|-------------------|
|-----------------|-------------------|-----------------|-------------------|
|-2-2-2-2-3-3-x-0-|-(0)-0-0-0-5-5-5-5-|-2-2-2-2-3-3-x-5-|-(5)-5-5-5-5-5-5-5-|
|-2-2-2-2-3-3-x-0-|-(0)-0-0-0-5-5-5-5-|-2-2-2-2-3-3-x-5-|-(5)-5-5-5-5-5-5-5-|
|-2-2-2-2-3-3-x-0-|-(0)-0-0-0-5-5-5-5-|-2-2-2-2-3-3-x-5-|-(5)-5-5-5-5-5-5-5-|


   Chorus
||--------------------------|-----------------|
||o-------------------------|-----------------|
||--------------------------|-----------------|
||--10-10-10-10-10-10-10-10-|-0-0-0-0-0-0-0-0-|
||o-10-10-10-10-10-10-10-10-|-0-0-0-0-0-0-0-0-|
||--10-10-10-10-10-10-10-10-|-0-0-0-0-0-0-0-0-|


|-----------------|-------------------||
|-----------------|------------------o||
|-----------------|-------------------||
|-2-2-2-2-2-2-2-2-|-5-5-5-5-5-5-5-5---||
|-2-2-2-2-2-2-2-2-|-5-5-5-5-5-5-5-5--o||
|-2-2-2-2-2-2-2-2-|-5-5-5-5-5-5-5-5---||


 Bridge

|-----------------|-----------------|-----------------|-----------------|
|-----------------|-----------------|-----------------|-----------------|
|-----------------|-----------------|-----------------|-----------------|
|-2-2-2-2-2-2-2-2-|-0-0-0-0-0-0-0-0-|-1-1-1-1-1-1-1-1-|-3-3-3-3-3-3-3-3-|
|-2-2-2-2-2-2-2-2-|-0-0-0-0-0-0-0-0-|-1-1-1-1-1-1-1-1-|-3-3-3-3-3-3-3-3-|
|-2-2-2-2-2-2-2-2-|-0-0-0-0-0-0-0-0-|-1-1-1-1-1-1-1-1-|-3-3-3-3-3-3-3-3-|


That's it.  A really simple song, but very good.  If you have ?'s or comments,
email me @ joellaw44@hotmail.com

Comments about this tab

blindsidelova - 2005-08-26

La La La La
I like to say smock!
BAw baw baw baw
I will clean your clock!


tsr4e - 2005-09-08

???am i the only one who thinks thats wierd???


joellaw44 - 2005-09-28

umm....yeah.
and there's no way that this should be 0 out of 5. It can't be that bad.


v1d30g4m3r - 2007-04-22

Great tab, my fave Demon Hunter song =)

also the most accurate on the net, thanks. but theres only one thing missing... at the end, theres a part with one of the 4 high notes, and then a deep power chord, then more high notes then a deep ending power chord. any way to add that on?


Add a comment/correction

Complimentary Christian Ringtones
Dadamobile and CGR have teamed up to bring your favorite Christian artists right to your phone. Sign up today and get 10 complementary ringtones!
Tab Country
Did you know CGR has a sister site w/ country guitar tabs? Well we do! Its called Tab Country. It has a great archive with a lot of country tabs.
Rockin Tabs
Are you looking for a site that has rock guitar tabs? Then Rockintabs.com is the place for you. It is a budding site with many rock guitar tabs. Submit your tab today.
Tab Gallery
Tab Gallery has a compilation of christian, rock, and country tabs all in one place. Come visit us.