Guitar Tabs
song title    band name

Join Us Today!

Don't strum alone...
be a part of the largest online Christian music community. Browse thousands of guitar tabs and chat w/ musicians like yourself.


It's Free!

This tab has been rated a 4.50 out of 5 for accuracy. (2 votes)Sorry, but you must be logged in to rate this tab.
Click here to log-in, or you can click here to register.
(Registration is free)

All songs owned by corresponding publishing company. If you make copies of any song on this website, be sure to report your usage to CCLI.
Submitted by: drmmrboi

-----------------------------------------------------------------------------
                        From End to End-Relient K
-----------------------------------------------------------------------------
Tabbed by:drmmrboi

Tuning:eadgbe

Just so you know this is my very first tab, but I think I did a good job.
I included both guitars where I heard different parts. Sorry if its long or 
confusing.I really like this song, so enjoi.

| /  slide up
| \  slide down
| x  Mute note
| b  bend or return

Intro[guitar 1]
e|--------------------------------------------------------------------------|
B|--------------------------------------------------------------------------|
G|--------------------------------------------------------------------------|
D|----5(x a lot)/4--------555554---/9—----555554--5-5-554--555554-----------|
A|--/7-------------7-------------7-----------------------------------7------|
E|--------------------------------------------------------------------------|
                    ^             I lined up these parts together 
     [guitar 2]  comes in here
e|---------------------------------------------------------------------------|
B|---------------------------------------------------------------------------|
G|-------------------------555555-5--------777777—-7-7-777--555555-5---------|
D|------------------2------555555-5--------777777—-7-7-777--555555-5---------|
A|------------------2------333333-3--------555555—-5-5-555--333333-3---------|
E|------------------0--------------------------------------------------------|


     [both guitars, or either one]
e|-------------------------------|
B|-------------------------------|
G|----55555555-------------------|
D|----55555555-222-222-----------|
A|----33333333-222-222-----------|
E|-------------000-000-----------|
               XXX XXX


Verse 1 0:18 [both guitars, or either one]    
e|------------------------------------------|   |-----------------------|
B|------------------------------------------|   |-----------------------|
G|---9--------------------------------------|x2 |----55555555-----------|
D|---9-(x16)--9--------12-------11----------|   |----55555555-555-555---|
A|---7--------9-(x16)--12-(x16)-11-(x16)----|   |----33333333-555-555---|
E|------------7--------10-------9-----------|   |-------------333-333---|
     X        X        X        X


Verse 1 0:44 continued             
 [guitar 1]slightly palm muted
 [10s and 11s, not 1s and 0s] played twice to go guitar 2 palm mutes
e|----------------------------------------------------------------------|
B|----------------------------------------------------------------------|
G|----------------------------------------------------------------------|
D|--999-101010101010-99-1010-99-1010------------------------------------|
A|-----------------------------------999-101010101010-99-1010-99-1010---|
E|----------------------------------------------------------------------|

e|----------------------------------------------------------------------|
B|----------------------------------------------------------------------|
G|----------------------------------------------------------------------|
D|----------------------------------------1111111111111111--------------|
A|--121212-1010101010-1212-1010-1212-1010-------------------------------|
E|----------------------------------------------------------------------|

[guitar 2] 0:44
e|------------------------------------------|   |-----------------------|
B|------------------------------------------|   |-----------------------|
G|---9--------------------------------------|x2 |----55555555-----------|
D|---9-(x16)--9--------12-------11----------|   |----55555555-555-555---|
A|---7--------9-(x16)--12-(x16)-11-(x16)----|   |----33333333-555-555---|
E|------------7--------10-------9-----------|   |-------------333-333---|
     XXXXXXXXXXXXXXXXXXXXXXXXXXXXXXXXXX


[both guitars, or either one]
e|-----------------------------|
B|-----------------------------|
G|---55555555------------------|
D|---55555555------------------|
A|---33333333------------------|
E|-----------------------------|
     XXXXXXXX

PreChorus 1:11 [both guitars, or either one]
                       ****
e|----------------------------------------------||-----------------------|
B|----------------------------------------------||-----------------------|
G|--777-77-------------12-------11--------------||----55555555-----------|
D|--777-77----10-------12-(x8)--11-(x8)-10------||----55555555-555-555---|
A|--555-55----10-(x16)-10-------9-------10-(x8)-||----33333333-555-555---|
E|------------8-------------------------8-------||-------------333-333---|

1:22
[guitar 1]quiet	             [guitar 2]goes w/“I just can’t believe the”
e|--------------------|	    e|--------------------| 
B|--------------------|	    B|----888887----------| played on second 
G|--1212121212121212--|	    G|--------------------| half of guitar 1
D|--1212121212121212--|x2   D|--------------------|
A|--1010101010101010--|	    A|--------------------|
E|--------------------|	    E|--------------------|
     

PreChorus continued
e|---------------------------------------------------------------------|
B|---------------------------------------------------------------------|
G|----------5---------------5------------------------------------------|
D|--5-------5-(x16)-5-------5-(x16)------------------------------------|
A|--5-(x16)-3-------5-(x16)-3------------------------------------------|
E|--3---------------3--------------------------------------------------|
            XXXXXXXXXXXXXXXXX [last of 16 C chords isn’t muted]


Chorus 1:36
                                             1:49			    
e|-----------------------------------------||----------------------------|
B|-----------------------------------------||----------------------------|
G|-----4--5--------------7------5----------||---8-----7-----8-----8------|
D|--5--4--5-(x16)-5------7-(x8)-5-(x16)-5--||-----7-----7-----7-----7----|
A|--5--2--3-------5-(x8)-5------3-------5--||-------5-----5-----5-----5--|
E|--3-------------3---------------------3--||----------------------------|



This is played in between the chorus and second verse, I don’t 
know what to call it.
[guitar 1]you don’t have to slide, but I do… 
and obviously, they’re 12s,10s and 11s
e-------------------------------------------------------------------------------
B----------------------------------/12------------------------------------------
G-1212121212/11-9--1212121212/11-11—-1212121212/11—-1212-121212-1212121212/11-9-
D-1212121212/11-9--1212121212/11-11—-1212121212/11--1212-121212-1212121212/11-9-
A-1010101010/9--7--1010101010/9--9—--1010101010/9---1010-101010-1010101010/9--7-
E-------------------------------------------------------------------------------

[guitar 2]
e|------------------------------------------------------------------|
B|------------------------------------------------------------------|
G|------------555555-5—-777777--77-777--555555-5--------------------|
D|--222222-2--555555-5--777777--77-777--555555-5--------------------|
A|--222222-2--333333-3--555555--55-555--333333-3--------------------|
E|--000000-0--------------------------------------------------------|

[both guitars, or either one]
e|-------------------------------|
B|-------------------------------|
G|----55555555-------------------|
D|----55555555-222-222-----------|
A|----33333333-222-222-----------|
E|-------------000-000-----------|
               XXX XXX


Verse 2     2:08  (half way done dudes)
 [guitar 1]played twice, slightly palm muted[12s and 10s again]
e|----------------------------------------------------------------------|
B|----------------------------------------------------------------------|
G|----------------------------------------------------------------------|
D|--999-101010101010-99-1010-99-1010--------999999------99------99------|
A|-----------------------------------121212--------1212----1212---------|
E|----------------------------------------------------------------------|

e|----------------------------------------------------------------------|
B|----------------------------------------------------------------------|
G|---------101010101010------1010------1010-----------------------------|
D|--121212--------------1212------1212------99999999--------------------|
A|----------------------------------------------------------------------|
E|----------------------------------------------------------------------|

[guitar 2]played twice, slightly palm muted[12s,11s,and 10s]
e|----------------------------------------------------------------------|
B|----------------------------------------------------------------------|
G|----------------------------------------------------------------------|
D|--999-101010101010-99-1010-99-1010------------------------------------|
A|-----------------------------------999-101010101010-99-1010-99-1010---|
E|----------------------------------------------------------------------|

e|----------------------------------------------------------------------|
B|----------------------------------------------------------------------|
G|----------------------------------------------------------------------|
D|----------------------------------------1111111111111111--------------|
A|--121212-1010101010-1212-1010-1212-1010-------------------------------|
E|----------------------------------------------------------------------|

[both guitars, or either one]
e|-------------------------------|
B|-------------------------------|
G|----55555555-------------------|
D|----55555555-222-222-----------|
A|----33333333-222-222-----------|
E|-------------000-000-----------|
               XXX XXX

PreChorus      2:34
[both guitars, or either one]
e|--7-7-777-7-7-77-7-7-777-7-777-------|
B|--8-8-888-8-8-88-8-8-888-8-888-------|after you play this, go back to
G|--9-9-999-9-9-99-9-9-999-9-999-------|to the first prechorus up there
D|--9-9-999-9-9-99-9-9-999-9-999-------|and play starting at the stars****
A|--7-7-777-7-7-77-7-7-777-7-777-------|play until you finish the prechorus 
E|--7-7-777-7-7-77-7-7-777-7-777-------|and chorus   and then move on below


 [guitar 1]palm muted
3:15                              3:24
e|-- play this for 5 measures ---||-then play this for 14 measures -|
B|-------------------------------||---------------------------------|
G|-------------------------------||------55555555555555555555-------|
D|---55555555555555555555--------||------55555555555555555555-------|
A|---55555555555555555555--------||------33333333333333333333-------|
E|---33333333333333333333--------||---------------------------------|
     XXXXXXXXXXXXXXXXXXXX                XXXXXXXXXXXXXXXXXXXX
                    ^                                      ^
[guitar 2]          ^                                      ^
e|- play this,during^this---------||- and play this, during^this-----|
B|--------------------------------||---------------------------------|
G|--------------555-55------------||---------------------------------|
D|--555-55------555-55------------||--2------7------5----------------|
A|--555-55------333-33------------||--2-(x8)-7-(x8)-5-(x16)----------|
E|--333-33------------------------||--0------5------3----------------|
                                      XXXXXXXXXXXXXXX


 Now you play the Chorus again, but a little different.

Chorus 2   3:44                        			    
e|------------------------------------------------------------------|
B|------------------------------------------------------------------|
G|----4-5--------------7-------5----------------------------5-------|
D|--5-4-5-(x16)-5------7-(x8)--5-(x14)-5------7------2------5-------|
A|--5-2-3-------5-(x8)-5-------3-------5-(x8)-7-(x8)-2-(x7)-3-------|
E|--3-----------3----------------------3------5------0--------------|
                                      XXXXXXXXXXXXXXXX

e|----------------------------------|
B|----------------------------------|
G|-----------7------5------12-------|
D|---5-------7-(x8)-5-(x8)-12-------|
A|---5-(x4)--5------3------10-------|
E|---3------------------------------|


Outro(were almost done dudes!:)    4:07
[guitar 1]
e|-------------------------------|  |--------------------|
B|-------------------------------|  |--------------------|
G|--8-----7-----8-----8----------|x3|--8-----7-----------|
D|----7-----7-----7-----7--------|  |----7-----7---------|
A|------5-----5-----5-----5------|  |------5-----5-------|
E|-------------------------------|  |--------------------|

[guitar 2]
e|-----------------------------------------------------------------------------|
B|-------------------------------12--------------------------------------------|
G|------9-----7—8/9-8---11/12-11--------9-----7-5-4b5b4b5b4------9-----7-----5-|
D|----9-----7---------9---------------7-----7------------------9-----7-----5---|
A|--7-----5-------------------------7-----5------------------7-----5-----3-----|
E|-----------------------------------------------------------------------------|

[both guitars, or eithr one]
e|-------------------------------------|
B|-------------------------------------|
G|-------------------------------------|
D|---222-2-2---------------------------|
A|---222-2-2---------------------------|
E|---000-0-0---------------------------|

Alright, we finished!!   Don’t forget to rate please.
	                             And Be Excellent to Each Other

Comments about this tab

Link13rock - 2006-03-13

Hey Great tab! only a few problems I saw, and it was a little confusing, you may want to re arrange it so the whole guitar 1 part is on top and the whole guitar 2 part afterwards it may be easyier, but otherwise this tab rocks!


Add a comment/correction

Complimentary Christian Ringtones
Dadamobile and CGR have teamed up to bring your favorite Christian artists right to your phone. Sign up today and get 10 complementary ringtones!
Tab Country
Did you know CGR has a sister site w/ country guitar tabs? Well we do! Its called Tab Country. It has a great archive with a lot of country tabs.
Rockin Tabs
Are you looking for a site that has rock guitar tabs? Then Rockintabs.com is the place for you. It is a budding site with many rock guitar tabs. Submit your tab today.
Tab Gallery
Tab Gallery has a compilation of christian, rock, and country tabs all in one place. Come visit us.