Guitar Tabs
song title    band name

Join Us Today!

Don't strum alone...
be a part of the largest online Christian music community. Browse thousands of guitar tabs and chat w/ musicians like yourself.


It's Free!

This tab has been rated a 3.00 out of 5 for accuracy. (1 vote)Sorry, but you must be logged in to rate this tab.
Click here to log-in, or you can click here to register.
(Registration is free)

All songs owned by corresponding publishing company. If you make copies of any song on this website, be sure to report your usage to CCLI.
Submitted by: meeko123

B--4-4-4-4--5-5-5-5-----------------
G--4-4------2-2-4-4-----------------
D------4-4-----------6-6-6-6-6-6-6-6
A--------------------6-6-6-6-6-6-6-6


B--4-4-4-4--5-5-5-5---------------------
G--4-4------2-2-4-4---------------------
D------4-4-----------6-6-6-6-13-13-11-11
A--------------------6-6-6-6-13-13-11-11


You can find the chorus chords on any other tab. The rest is easy.

Comments about this tab

Third_Day_Rocks - 2006-07-19

If you want the correct chords and intro tab of this song just go to worshiptogether.com. Or just go to the tab requests forum, under worship together new song cafe and I posted the link to the video.


Third_Day_Rocks - 2006-07-19

This is the correct intro(shown on the video):

capo 2nd fret
e|-------------0-0-----------------------------0-0---------2-2-0-0-|
B|-2-2-2-2-3-3-3-3-----------------2-2-2-2-3-3-3-3-3-3-3-3-3-3-3-3-|
G|-2-2-2-2-2-2-----4-4-4-4-4-4-4-4-2-2-2-2-2-2-----4-4-4-4---------|
D|-----------------4-4-4-4-4-4-4-4---------------------------------|
A|-----------------------------------------------------------------|
E|-----------------------------------------------------------------|


Add a comment/correction

Complimentary Christian Ringtones
Dadamobile and CGR have teamed up to bring your favorite Christian artists right to your phone. Sign up today and get 10 complementary ringtones!
Tab Country
Did you know CGR has a sister site w/ country guitar tabs? Well we do! Its called Tab Country. It has a great archive with a lot of country tabs.
Rockin Tabs
Are you looking for a site that has rock guitar tabs? Then Rockintabs.com is the place for you. It is a budding site with many rock guitar tabs. Submit your tab today.
Tab Gallery
Tab Gallery has a compilation of christian, rock, and country tabs all in one place. Come visit us.