Guitar Tabs
song title    band name

Join Us Today!

Don't strum alone...
be a part of the largest online Christian music community. Browse thousands of guitar tabs and chat w/ musicians like yourself.


It's Free!

This tab has been rated a 4.60 out of 5 for accuracy. (5 votes)Sorry, but you must be logged in to rate this tab.
Click here to log-in, or you can click here to register.
(Registration is free)

All songs owned by corresponding publishing company. If you make copies of any song on this website, be sure to report your usage to CCLI.
Submitted by: datarmysoulja

Artist: Falling Up
Song: Broken Heart
Submitted By: datarmysoulja@yahoo.com
Tuning: Dadgbe

This is my first tab for this website. I know it's perfect, at least to me it
is. I hope it is for you, too. Please send comments. Thankz.

Intro
e[----------------------------------------------------------------------------]
b[----------------------------------------------------------------------------]
g[-*-*-*-*-*--*-*-*-*---------------------------------------------------------]
d[-0-4-6-6-8--0-4/6-8---------------------------------------------------------]
a[-0-4-6-6-6--0-4/6-6---------------------------------------------------------]
D[-0-4-6-6----0-4/6-----------------------------------------------------------]
   p.m................

Verse x8                             Prechorus 1

e[--------------------------------I--------------------------------------------]
b[--------------------------------I--------------------------------------------]
g[----------*-*-*-----------------I--------------------------------------------]
d[-0-4-6-8--0-4/6-8---------------I-------4------------------------------------]
a[-0-4-6-6--0-4/6-6---------------I-------4------------------------------------]
D[-0-4-6----0-4/6-----------------I-------4------------------------------------]
            p.m..                         End with this before chorus. Let ring.

Chorus x2

e[-----------------------------------------------------------------------------]
b[-----------------------------------------------------------------------------]
g[-4-4-4-4-4-4--4--6-6-6-6-6-6--6--8-8-8-8-8-8-8-8--6-6-6-6-6-6-6-6------------]
d[-2-2-2-2-2-2-x2--4-4-4-4-4-4-x4--6-6-6-6-6-6-6-6--4-4-4-4-4-4-4-4------------]
a[-2-2-2-2-2-2-x2--4-4-4-4-4-4-x4--6-6-6-6-6-6-6-6--4-4-4-4-4-4-4-4------------]
D[-2-2-2-2-2-2-x2--4-4-4-4-4-4-x4--6-6-6-6-6-6-6-6--4-4-4-4-4-4-4-4------------]

Intro x2

Verse x8

Prechorus 1 

Chorus x2

Bridge x2
e[-----------------------------------------------------------------------------]
b[-----------------------------------------------------------------------------]
g[------111111/----111111/--------8---------8----------------------------------]
d[-2-2----------4----------9-8-xx----9-8-xx----x2------------------------------]
a[-2-2--9-9-9/--4--9-9-9/--6-6-xx-6--6-6-xx-6----------------------------------]
D[-2-2----------4----------6-6-xx----6-6-xx------------------------------------]

Hook x3                                   Pre-Chorus 2
e[---------------------------------------I-------------------------------------]
b[---------------------------------------I-------------------------------------]
g[---------------------------------------I-------------------------------------]
d[-2-2-2-2-2-2-2-2--6-6-6-6-6-6-6-6------I--6-6-xxxx-6-6-xxxx-6-6-6------------]
a[-2-2-2-2-2-2-2-2--6-6-6-6-6-6-6-6------I--6-6-xxxx-6-6-xxxx-6-6-6------------]
D[-2-2-2-2-2-2-2-2--6-6-6-6-6-6-6-6------I--6-6-xxxx-6-6-xxxx-6-6-6------------]

Chorus x3
(Begins with just the guitar and no palm mute the first half of first time.)
(On the third time of the chorus, strum straight through.
Then on fourth time....
e[-----------------------------------------------------------------------------]
b[-----------------------------------------------------------------------------]
g[-*-*-*-*-*-*-*-*--*-*-*-*-*-*-*-*--*-*-*-*-*-*-*-*--*-*-*-*-*-*-*-*----------]
d[-2-2-2-2-2-2-2-2--4-4-4-4-4-4-4-4--6-6-6-6-6-6-6-6--4-4-4-4-4-4-4-4/---------]
a[-2-2-2-2-2-2-2-2--4-4-4-4-4-4-4-4--6-6-6-6-6-6-6-6--4-4-4-4-4-4-4-4/---------]
D[-2-2-2-2-2-2-2-2--4-4-4-4-4-4-4-4--6-6-6-6-6-6-6-6--4-4-4-4-4-4-4-4/---------]
   p.m.............................
(Slowly and Gradually Let Off Of Palm Mute For This Part.)

Outro
e[------------------------I----------------------------------------------------]
b[------------------------I----------------------------------------------------]
g[------------*-*-*-------I------------111111/---111111/------8----------------]
d[-0-4-6-6-8--0-4/6-8-----I--xxxx--2-2---------4---------9-8-x---2-------------]
a[-0-4-6-6-6--0-4/6-6--x2-I--xxxx--2-2-9-9-9/--4-9-9-9/--6-6-x6--2-------------]
D[-0-4-6-6----0-4/6-------I--xxxx--2-2---------4---------6-6-x---2-------------]
              p.m..                                            let ring

Comments about this tab

guitarbmee - 2005-09-15

wow wow wow really really good job. this is deffinately the best tab for this song that I've ever seen. I'm glad that there is finally a good tab for the bridge. Thanks for the effort.

~Ben A.K.A guitarbmee


Cheese_Monkey - 2005-10-03

good job man, that's pretty much perfect. kudos to you


†never†alone† - 2006-05-07

-Department of Redundancy Department-
Extremly good tab, it is very good.This band is amazing, keep up the good tabbing!


sac346 - 2007-04-24

awesome! the only thing different then my tab is i added one extra note on the intro. great work!


Add a comment/correction

Complimentary Christian Ringtones
Dadamobile and CGR have teamed up to bring your favorite Christian artists right to your phone. Sign up today and get 10 complementary ringtones!
Tab Country
Did you know CGR has a sister site w/ country guitar tabs? Well we do! Its called Tab Country. It has a great archive with a lot of country tabs.
Rockin Tabs
Are you looking for a site that has rock guitar tabs? Then Rockintabs.com is the place for you. It is a budding site with many rock guitar tabs. Submit your tab today.
Tab Gallery
Tab Gallery has a compilation of christian, rock, and country tabs all in one place. Come visit us.