Guitar Tabs
song title    band name

Join Us Today!

Don't strum alone...
be a part of the largest online Christian music community. Browse thousands of guitar tabs and chat w/ musicians like yourself.


It's Free!

This tab has been rated a 4.67 out of 5 for accuracy. (6 votes)Sorry, but you must be logged in to rate this tab.
Click here to log-in, or you can click here to register.
(Registration is free)

All songs owned by corresponding publishing company. If you make copies of any song on this website, be sure to report your usage to CCLI.
Submitted by: Cheese_Monkey

Title: Anthem
Artist: Superchic[k]
CD: Beauty from Pain

Hey its me, Cheese Monkey, and i'd like to start this off by saying that i'm 
slightly dissapointed that i had to write this out myself! NOBODY on the 
internet has tabbed this song up until now!  and its so easy! i spent 5 minutes
in front of my piano with the song first, then i picked up my guitar and played 
along to the CD to get the finer points out, its that simple.  so here i am 
writing it down for you!

here's my little legend thingy :D

h=hammer on note
p=pull off note
b=bend, listen to the song to hear how far, its not difficult
s=slide, followed by the fret you slide to (eg. 5s10 slide from 5th to tenth)

so yeah lets go to it!
(btw, this is very simple to play, so i wont go into detail on how many times 
to strum and stuff like that, you can figure that out for yourself, i'll just
end up confusing you!)

INTRO!!!
e--------------------------------
B--------------------------------
G----------5-7---------------5-7-
D--5s7-7-7-5-7- repeat twice-5-7-
A--5s7-7-7-3-5---------------3-5-
E--3s5-5-5-----------------------

Pre verse

e---------------------------
B---------------------------
G---------------------------
D--------------------------- repeat once, then verse starts
A--0-0---0-0---0-0-3-5-6-5-3
E------3-----3--------------

Verse

e----------------------------------------------------------------------------
B-----------------------------------------------------------------------------
G-- (eight times)     (eight times)     (10 times)       (that fun little riff)
D--0-0-0-0-0-0-0-0-3-3-3-3-3-3-3-3-5-5-5-5-5-5-5-5-5-5-3-5-6-5-3--------------
A-----------------------------------------------------------------------------
E-----------------------------------------------------------------------------

e-----------------------------------------------------------------------------
B-----------------------------------------------------------------------------
G-----------------------------------------------------------------------------
D-- (eight times)   (eight times)  (eight times) (8 times, gradually bend to 6)
A--0-0-0-0-0-0-0-0-3-3-3-3-3-3-3-3-5-5-5-5-5-5-5-5-5b-5b-5b-5b-5b-5b-5b-5b----
E-----------------------------------------------------------------------------

CHORUS:

e-----------
B-----------
G----5-7----
D--7-5-7-5-- repeat, but mute the G chord after playing it the second time
A--7-3-5-5--
E--5-----3--

Bridge fill thing:  rather fast, look at how close the notes are

D-------------------------------------------------------------------
A--0-000-5-000-3-000-0-000-3-333-5-0-000-5-000-3-000-0-000-3-333-5-0
E-------------------------------------------------------------------

And i believe that is the whole song!  Feel free to comment on how i did, if 
you have any questions comments or concerns, feel free to email me at
timistheman99@hotmail.com
and for future reference, i am NOT Tim from Starfield :)
You'd be surprised at how many people email me to tell me how much they love
my band lol.  Anyway, 

God Bless
Tim AKA Cheese Monkey

Comments about this tab

krutchfan66 - 2005-08-20

sweet tab dude i give it five stars!!!!!!


Cheese_Monkey - 2005-11-24

oh one little mistake i just noticed, i accidentally wrote the notes on the d string during the verse when i meant it to be all on the a string! so just move the strings down one. thanks


drummergirl6 - 2006-01-06

nice... thanks dude. =)


ncm*fan - 2006-02-27

hey thanx i love it i love i love it!!! be and one of my friends love this song....we are even going to make an email address about it! lol


excellent_rawk - 2006-03-15

sweet tab! heck yes it is! 5 stars


guitarmaster2 - 2006-03-19

its like perfect nice


guitar_freakk09 - 2006-04-01

hey great tab!


LemonySnicket - 2006-04-02

Teehee, Cheese Monkey


Dani_Boy - 2006-04-05

Really, really close! You've missed out a few parts, but what you've got is really really good!


Breezy - 2006-05-01

I really like this song but I have NO clue how to read tabs...so could someone put it in chords so maybe I could read it?!? Cause I'm just a beginner, and I can't read tabs...so could someone please help?!?


samantha613 - 2006-07-20

I DONT UNDERSTAND HOW TO READ THIS! I JUST STARTED PLAYING GUITAR SO IT MIGHT JUST BE ME!


Zboy4God - 2006-08-07

this is a cool song and the tabs are rite on

keep on tabbing Cheese monkey


Zboy4God - 2006-08-07

you cant reed tabs?

OK tabs are easy

1. you have your strings e--------------------------------------------
B--------------------------------------------
G-------------------------------------------
D--------------------------------------------
A--------------------------------------------
E--------------------------------------------



2. your finger place meant

each number is whar you pout your fingers
0 means open 1 means the first fret 2 means the second fret and so on
e---0-0---1----3--3---1--0--------------3--1--3--3--
B-------------------------------3--1--3-3--------------
G------------------------------------------------
D------------------------------------------------
A------------------------------------------------
E------------------------------------------------


this is a D chord get it

e----2---------------------------------------
B----3---------------------------------------
G----2---------------------------------------
D--------------------------------------------
A--------------------------------------------
E--------------------------------------------

I hope you can under stand this God bless

------------------ZBoy out---------------------


what_ever - 2006-08-21

Zboy- a D chord should have 0 on the D string shouldn't it?


Zboy4God - 2006-08-28

oops my bad thanks


LemonySnicket - 2006-11-23

woo nice !!


LemonySnicket - 2006-11-23

love this song!


staplegun71 - 2007-01-11

Hey is this in standard tuning? Thanks
staplegun71


staplegun71 - 2007-01-12

I see the tuning on the tab bar.
staplegun71


sethc24 - 2007-03-04

Cool nice job cheese monky. But i think the intro can be a bit more spicy. I changed it a bit, added some more slides. Anyways i also did a powertab version of the song. ( note its my first powertab so its not with the timing, but it looks good so.)

If anyone wants powertab version with alternate intro i did email me.

age_battle_fan@hotmail.com

Anyways great job guys i really like this website its hard to find christian guitar tablature on www.ultimate-guitar.come so this is great. Keep up the good work.


Add a comment/correction

Complimentary Christian Ringtones
Dadamobile and CGR have teamed up to bring your favorite Christian artists right to your phone. Sign up today and get 10 complementary ringtones!
Tab Country
Did you know CGR has a sister site w/ country guitar tabs? Well we do! Its called Tab Country. It has a great archive with a lot of country tabs.
Rockin Tabs
Are you looking for a site that has rock guitar tabs? Then Rockintabs.com is the place for you. It is a budding site with many rock guitar tabs. Submit your tab today.
Tab Gallery
Tab Gallery has a compilation of christian, rock, and country tabs all in one place. Come visit us.