Guitar Tabs
song title    band name

Join Us Today!

Don't strum alone...
be a part of the largest online Christian music community. Browse thousands of guitar tabs and chat w/ musicians like yourself.


It's Free!

This tab has been rated a 2.50 out of 5 for accuracy. (4 votes)Sorry, but you must be logged in to rate this tab.
Click here to log-in, or you can click here to register.
(Registration is free)

All songs owned by corresponding publishing company. If you make copies of any song on this website, be sure to report your usage to CCLI.
Submitted by: krutchfan66

Song title:Go
Album:the art of breaking 
Artist:Thousand foot krutch
Tabber:Krutchfan66
Drop d tuning
Awesome song....plz rate

Intro:
D-0-2-2-2-7----7-7---7-7-7--
A-0-2-2-2-7--5-7-7-5-7-7-7--
D-0-2-2-2-7--7-7-7-7-7-7-7--        x4
G------------7-----7--------
B---------------------------
E---------------------------

Verse:
D-----------2-------------------------------2------------------------------
A-----------2-2--2-2-22-2-22-2-2-22-22-22-2-2-2--2-2-22-2-22-2-2-22-22-22-2
D-2~--------2-x--x-x-xx-x-xx-x-x-xx-xx-xx-x-2-x--x-x-xx-x-xx-x-x-xx-xx-xx-x   
G-4~----------4--4-4-44-4-44-4-4-44-44-44-4---4--4-4-44-4-44-4-4-44-44-44-4
B-5~-----------------------------------------------------------------------
E--------------------------------------------------------------------------

D-2-------------------------------2-2--2-2-22-2-22-2-2-22-22-22-2
A-2-2--2-2-22-2-22-2-2-22-22-22-2-2-2--2-2-22-2-22-2-2-22-22-22-2
D-2-x--x-x-xx-x-xx-x-x-xx-xx-xx-x-x-x--x-x-xx-x-xx-x-x-xx-xx-xx-x  

Comments about this tab

krutchfan66 - 2005-08-17

wut the crap i didtn show the whol tab thingy........im gunna sue


SSj Guitarist - 2005-08-17

that's ok, it's crap anyway


SSj Guitarist - 2005-08-17

What I mean to say, is that it's upside down, it's a entire octave to low, and it's amazingly hard to read


krutchfan66 - 2005-08-21

it isnt that hard wut is wrong with u people!?!?!?!?!?!?!?!?!!!!!!!!!


joellaw44 - 2005-08-21

Yeah, it's not right. And upside down is very hard to read, sorry I'll have to agree.


krutchfan66 - 2005-08-23

it is not hard to read.ok take ur guitar and put it out in front of uso that u can see the strings and ur neck is pointed to the right.see?thats wut i see when i think of tabbing things.and these r my first tabs ever so ya gotta atleast give me a little slack.


malachai - 2005-08-23

congrats on trying krutchfan. SSJ is a pansie


element1 - 2005-08-23

it's not that it's hard to read just that your tab staff... is upside down. anyone who plays w/the tab staff the right way will probably have a difficult time reading it. i had a little trouble!


brazilsoccer03 - 2005-08-28

I find it very hard to read, but nice effort anyways.....could use a little correcting
`Brad


ice_wiz - 2005-11-27

I don't see how it is hard to read ssj, it's actually easier. O ya good job on the tab krutchfan66


tsr4e - 2005-12-03

mayb 4 thge left handed players but i can read it fine and im used to reading it the other way(everybody has their own personal preference ;) )


TFK...SO RAD... - 2005-12-20

Can i ask if anyone is able to tab the lead over the top of the chords and the little solo? Oh and by the way, dude its a good tab. Especially 4 a first one, keep rockin. U missed out on a few little things here and there, but its all good.

God Bless, TFK...SO RAD...


thefish_8me - 2006-01-14

I have to say, nice try on this song, for your first tab and all, especially since its the only tab of "go" there is


guitarguy38 - 2006-02-02

I think the intro goes more like this

E|-------------------------------|
B|-------------------------------|
G|-------------------------------|
D|-7/9-9-11-7-12-0-0-12-12h14----|
A|-7/9-9-11-7-12-0-0-12-12h14----|
D|-7/9-9-11-7-12-0-0-12-12h14----|

The second time around, do a bend after the 12's instead of hammering onto 14.


mmggppmgp - 2006-02-09

hmm the song involves a wah pedal i believe


Dani_Boy - 2006-03-22

This looks really off... It's much more high-pitched.
I might tab it sometime, we'll see.


what_ever - 2006-08-15

I haven't really tried this yet because I just started reading tabs recently so I'm not very good at playing them yet, and I also don't know this song well enough to know whether something sounds right or not... anyway, guys, SO WHAT if it's upside down, if it matters that much to you you can put it the right way, for crying out loud! I mean, it just takes a little bit of editing to do it.


what_ever - 2006-08-15

with a bit of editing...


Intro:
E---------------------------
B---------------------------
G------------7-----7--------
D-0-2-2-2-7--7-7-7-7-7-7-7-- x4
A-0-2-2-2-7--5-7-7-5-7-7-7--
D-0-2-2-2-7----7-7---7-7-7--

Verse:
E--------------------------------------------------------------------------
B-5~-----------------------------------------------------------------------
G-4~----------4--4-4-44-4-44-4-4-44-44-44-4---4--4-4-44-4-44-4-4-44-44-44-4
D-2~--------2-x--x-x-xx-x-xx-x-x-xx-xx-xx-x-2-x--x-x-xx-x-xx-x-x-xx-xx-xx-x A-----------2-2--2-2-22-2-22-2-2-22-22-22-2-2-2--2-2-22-2-22-2-2-22-22-22-2
D-----------2-------------------------------2------------------------------

D-2-x--x-x-xx-x-xx-x-x-xx-xx-xx-x-x-x--x-x-xx-x-xx-x-x-xx-xx-xx-x
A-2-2--2-2-22-2-22-2-2-22-22-22-2-2-2--2-2-22-2-22-2-2-22-22-22-2
D-2-------------------------------2-2--2-2-22-2-22-2-2-22-22-22-2


what_ever - 2006-08-15

ok that doesn't quite look right in the comment thing... and sorry, that one comment was a little rude.


Add a comment/correction

Complimentary Christian Ringtones
Dadamobile and CGR have teamed up to bring your favorite Christian artists right to your phone. Sign up today and get 10 complementary ringtones!
Tab Country
Did you know CGR has a sister site w/ country guitar tabs? Well we do! Its called Tab Country. It has a great archive with a lot of country tabs.
Rockin Tabs
Are you looking for a site that has rock guitar tabs? Then Rockintabs.com is the place for you. It is a budding site with many rock guitar tabs. Submit your tab today.
Tab Gallery
Tab Gallery has a compilation of christian, rock, and country tabs all in one place. Come visit us.