Guitar Tabs
song title    band name

Join Us Today!

Don't strum alone...
be a part of the largest online Christian music community. Browse thousands of guitar tabs and chat w/ musicians like yourself.


It's Free!

This tab has been rated a 2.67 out of 5 for accuracy. (3 votes)Sorry, but you must be logged in to rate this tab.
Click here to log-in, or you can click here to register.
(Registration is free)

All songs owned by corresponding publishing company. If you make copies of any song on this website, be sure to report your usage to CCLI.
Submitted by: guitarguy1020

Verse: A D

Pre-Chorus: D F# B 
            D A B A

Chourus:A D F# B D
        A F# B D
  
Verse: A D

Pre-Chorus: D F# B
            D A B A

Chorus:A D F# B D
       A F# B D

Solo-

Chorus:A D F# B D 
       A F# B D

Outro: A D

Comments about this tab

supaduk - 2005-09-10

Nice tab, but could you please put the intro in?

Thanks buddy

Bye


Distortion - 2005-10-14

Intro's are nice.


Mr. T - 2006-06-14

great, but it's F#m, not F. Thanks alot!


sportsman123 - 2006-12-27

e----------------------------------------------------
b----------------------------------------------------
g----------------------------------------------------
d-----7h666h7----7h666h7--00---7h666h7---00---7h666h7 Keep Repeating
a--00---------00-------------------------------------


sportsman123 - 2006-12-27

that is the intro


midnight burnin - 2007-01-22

great job, but you forgot the solo

e-------------------------------------------------------------------------
b-------10-------10---10-------12-12b-12-10-------------------------------
g-11-11----11-11----11---10-10---------------------6----6---------8---8---8-
d----------------------------------------------7-7--7-7---7-7--9-9-9-9--9---

repeat and then..

g-9--
d-8--
anfd just repeat this into the chrous(i think( listen to the song for the best idea)




Add a comment/correction

Complimentary Christian Ringtones
Dadamobile and CGR have teamed up to bring your favorite Christian artists right to your phone. Sign up today and get 10 complementary ringtones!
Tab Country
Did you know CGR has a sister site w/ country guitar tabs? Well we do! Its called Tab Country. It has a great archive with a lot of country tabs.
Rockin Tabs
Are you looking for a site that has rock guitar tabs? Then Rockintabs.com is the place for you. It is a budding site with many rock guitar tabs. Submit your tab today.
Tab Gallery
Tab Gallery has a compilation of christian, rock, and country tabs all in one place. Come visit us.