Guitar Tabs
song title    band name

Join Us Today!

Don't strum alone...
be a part of the largest online Christian music community. Browse thousands of guitar tabs and chat w/ musicians like yourself.


It's Free!

This tab has been rated a 4.50 out of 5 for accuracy. (2 votes)Sorry, but you must be logged in to rate this tab.
Click here to log-in, or you can click here to register.
(Registration is free)

All songs owned by corresponding publishing company. If you make copies of any song on this website, be sure to report your usage to CCLI.
Submitted by: saintsaybia

  Song: Art In Me
  Artist: Jars of Clay
  Album: Jars of Clay
  copyright 1995, pogostick records

  This is just the intro tab, the other tab was somewhat off.


  Capo 3


  E-----------0-------0-------0-------0--|
  B---------0-------0-------0-------0----|   Repeat X times.
  G-------------2-------4-------2--------|
  D----2h4-------------------------------| 

  
    The other tab looks pretty solid as far as the regular chords go,
    I haven't tried it out yet.


    -saintsaybia

Comments about this tab

JasonD - 2006-01-17

one note maybe is missing at the beginning?

Capo 3


E-----------0-------0-------0-------0--|
B---------0-------0-------0-------0----| Repeat X times.
G-------1-----2-------4-------2--------|
D----2h4-------------------------------|

good tab otherwise though! thanks!


JW4JC - 2006-09-06

I think the guy is right. It also could be played as...

e-|----------0-----0------0-----0---|-
B-|--------0-----0------0-----0-----|-
G-|------------2------4-----2-------|-
D-|--2h4s6--------------------------|-


dsmxpx - 2006-12-27

Almost correct, it should be:

e-|----------0-----0------0-----0---|-
B-|--------0-----0------0-----0-----|-
G-|------1-----2------4-----2-------|-
D-|--2h4----------------------------|-

keep your #1finger (pointer) on G-1 and then add #2 (middle finger)to G-2 and slide that fingering up to G-4 and back down to G-2. That way you are all set for the second time through it. You can hear the slide on the recording.


deelee21 - 2007-03-22

Actually it is a double hammer: in EABEBE (capo 3)

e-|----------0-----0------0-----0---|-
b-|--------0-----0------0-----0-----|-
E-|--0h2h4-----5------7-----5-------|- repeat until middle of 1st verse
B-|---------------------------------|-
A-|---------------------------------|-
E-|---------------------------------|-
1 3 3 3 1

If you listen closely to the track, you'll hear some string squeak from the sliding of the ring finger.


Add a comment/correction

Complimentary Christian Ringtones
Dadamobile and CGR have teamed up to bring your favorite Christian artists right to your phone. Sign up today and get 10 complementary ringtones!
Tab Country
Did you know CGR has a sister site w/ country guitar tabs? Well we do! Its called Tab Country. It has a great archive with a lot of country tabs.
Rockin Tabs
Are you looking for a site that has rock guitar tabs? Then Rockintabs.com is the place for you. It is a budding site with many rock guitar tabs. Submit your tab today.
Tab Gallery
Tab Gallery has a compilation of christian, rock, and country tabs all in one place. Come visit us.