Guitar Tabs
song title    band name

Join Us Today!

Don't strum alone...
be a part of the largest online Christian music community. Browse thousands of guitar tabs and chat w/ musicians like yourself.


It's Free!

This tab has been rated a 3.67 out of 5 for accuracy. (3 votes)Sorry, but you must be logged in to rate this tab.
Click here to log-in, or you can click here to register.
(Registration is free)

All songs owned by corresponding publishing company. If you make copies of any song on this website, be sure to report your usage to CCLI.
Submitted by: sgarlata2000

Third Day     -      Blackbird
Album: Live Wire
Copyright 1996
New Spring Publishing / ASCAP


Intro/Verse:
    D     G    F

  - 5     3    1
  - 5     3    1
  - 7     4    2
  - 7     5    3
  - 5     5    3
  - 5     3    1


Before Chorus:
    G     F    D

  - 3     1    5
  - 3     1    5
  - 4     2    7
  - 5     3    7
  - 5     3    5
  - 3     1    5

Chorus:
    F     C    G    D

  - 1     3    3    5
  - 1     3    3    5
  - 2     5    4    7
  - 3     5    5    7
  - 3     3    5    5
  - 1     3    3    5


Verse 2
Before Chorus
Chorus

Bridge (X2):
   C5     G5    D5

  - *     *    *
  - *     *    *
  - 5     *    7
  - 5     5    7
  - 3     5    5
  - *     3    *



SOLO (This is HARD):

|----------------------------------------|
|----------------------------------------|
|--12p10-----10--12b(14)r12---10~--------|
|--------12------------------------------|
|----------------------------------------|
|----------------------------------------|

|----------------------------------------|
|----------------------------------------|
|-------------12h10-------12b(14) 12 ~11-|
|--12h10-------------12------------------|
|---------12-----------------------------|
|----------------------------------------|

|----------------------------------------|
|--15------------15----------------------|
|---------11-------------12b(14)-12~11---|
|-----12-----12-----12-------------------|
|----------------------------------------|
|----------------------------------------|

|----------------------15----------------|
|--15--15--17--15--17-----17b(19)r17--15~|
|--12------------------------------------|
|----------------------------------------|
|----------------------------------------|
|----------------------------------------|

|-------------------------------15-------|
|-----------17--15--17---15h17-----------|
|--12\--14-------------------------------|
|----------------------------------------|
|----------------------------------------|
|----------------------------------------|

|--17b(19)r17--15p14---------------------|
|---------------------15-----------------|
|-------------------------14\10----------|
|----------------------------------------|
|----------------------------------------|
|----------------------------------------|

|----------------------------------------|
|----------------------------------------|
|--12b(14)-12~--12-12-10--12~----9h10----|
|----------------------------------------|
|----------------------------------------|
|----------------------------------------|

|----------------------------------------|
|----------------------------------------|
|----------------------------------------|
|--12--10------10----7----4--------------|
|----------12--11----8----5--------------|
|----------------------------------------|

      |------------------------------------------------------|
This  |------------------------------------------------------| this part
bit   |-----------------------------10----------12h10--------| took hours
is    |-----------10-------12h10-------12-10-----------12-10-| to tab but 
100%  |-12r10--------12-10-------12--------------------------| it is correct
      |-------12---------------------------------------------| (Used the DVD)

|-10-10-10-10--13-13---10---13-------------------|
|-10-10-10-10--13-13---10---13-------------------|
|-12-12-12-12--10-10---12---10-------------------|
|-10-10-10-10--10-10---10---10-------------------|
|-*--*--*--*---*--*----*----*--------------------|
|-*--*--*--*---*--*----*----*--------------------|

|----------------------------------------|
|---17b(19)-15---------------------------|
|--------------14b(16)-12~---------------|
|--------------------------9-12~---------|
|----------------------------------------|
|----------------------------------------|

When Mac introduces the band to the audience,
Mark is playing some little catchy thing like this:
|----------------------------------------|
|----------------------------------------|
|-12b(14)-12--10-----10-10-10-10-10-10---|
|---------------12---------------------12|  Do This X4
|----------------------------------------|
|----------------------------------------|

|------------------------------15-14-------------|
|-13-15-13-15-13-15-13-15-13-15------15-13-------|
|------------------------------------------12-10-|
|------------------------------------------------|  
|------------------------------------------------|
|------------------------------------------------|



Well this tab is done and I hope it helps a lot.
The other tabs on this site are not quite acurate as this though
I do know that this tab is not 100%. The other tab for blackbird
has been tabbed listening to Third Day (Bus CD) and this one has been tabbed
from LIVE WIRE

Thankyou and PLEASE add any helpful suggestions

Comments about this tab

sgarlata2000 - 2005-11-07

Sorry, i checked the song again and the Verses and choruses are all power
chords.


Missouri_Redd - 2006-05-16

Thanks for the time and effort you put in on this, I love this version.


Add a comment/correction

Complimentary Christian Ringtones
Dadamobile and CGR have teamed up to bring your favorite Christian artists right to your phone. Sign up today and get 10 complementary ringtones!
Tab Country
Did you know CGR has a sister site w/ country guitar tabs? Well we do! Its called Tab Country. It has a great archive with a lot of country tabs.
Rockin Tabs
Are you looking for a site that has rock guitar tabs? Then Rockintabs.com is the place for you. It is a budding site with many rock guitar tabs. Submit your tab today.
Tab Gallery
Tab Gallery has a compilation of christian, rock, and country tabs all in one place. Come visit us.