Guitar Tabs
song title    band name

Join Us Today!

Don't strum alone...
be a part of the largest online Christian music community. Browse thousands of guitar tabs and chat w/ musicians like yourself.


It's Free!

This tab has been rated a 4.83 out of 5 for accuracy. (6 votes)Sorry, but you must be logged in to rate this tab.
Click here to log-in, or you can click here to register.
(Registration is free)

All songs owned by corresponding publishing company. If you make copies of any song on this website, be sure to report your usage to CCLI.
Submitted by: sXcountry

Haste the Day
"Long Way Down"
When Everything Falls

(this is a cover of the goo goo dolls 1995 song, but its a heckuva lot faster, 
and better, cuz its haste the day)

Tuning: (low to high) C,D,C,F,A,D

Intro/Chorus
(G1)
D|----------------------------------|
A|----------------------------------| **:you can hand mute these if you wish
F|----------------------------------|
C|-7/9-9--99-12-11-9-7--55555-77777-|
D|-7/9-9--99-12-11-9-7--55555-77777-|
C|-7/9-9--99-12-11-9-7--55555-77777-|
          **

Intro
(G2) after one time above 
D|---------------------------|
A|---------------------------|
F|---------------------------| ' 3X
C|-11-h12-12-12-12-12-12-12--|
D|---------------------------|
C|---------------------------|

D|-----------------------------------------------------------------------|
A|-----------------------------------------------------------------------|
F|-----------------------------------------------------------------------|
C|-/19-17-16-14--14-h16-p14-12-\11-11-h12-12-12-12-11-h12-12-12-12-12-12-|
D|-----------------------------------------------------------------------|
C|-----------------------------------------------------------------------|

D|-----------------------------------------|
A|-----------------------------------------|
F|-----------------------------------------|
C|-/19-17-16-14--14-h16-p14-12-\11-11-h12~-|
D|-----------------------------------------|
C|-----------------------------------------|

Verse (both)
(comes in after drum solo)
D|----------------|
A|----------------|
F|----------------|
C|-9-7-5--7--7-/9-|
D|-9-7-5--7--7-/9-|
C|-9-7-5--7--7-/9-|

D|--------------------------------------------|
A|--------------------------------------------|
F|--------------------------------------------|
C|-9-7--5-555-7-777--5-555-7-777--5-555-7-777-|
D|-9-7--5-555-7-777--5-555-7-777--5-555-7-777-|
C|-9-7--5-555-7-777--5-555-7-777--5-555-7-777-|

D|---|
A|---|
F|---|
C|-9-|   16X
D|-9-|
C|-9-|

Chorus (same as intro, both play G1 part)

Verse (same as above)

Bridge (G1) (solo)
D|-----------------------------------------------------|
A|-----------------------------------------------------|
F|-----------------------------------------------------|
C|---------------------12-11-12-14-/16-16-16-----------|
D|-9-12--14-p12-14-12----------------------------------|
C|-----------------------------------------------------|

D|-----------------------------------------------------------|
A|-----------------------------------------------------------|
F|-11-h14-16-16-\14-14-h16-16-16\--11-/9-11-h14-14-16-p14-16-|
C|-----------------------------------------------------------|
D|-----------------------------------------------------------|
C|-----------------------------------------------------------|
             __1/4 bend 5X
D|----------/-------------------------------------------------------|
A|-12-h15-b18------15-----------------------------------------------|
F|--------------16----16-16\14-14\12-12p11-11\9-9\7-7\6-6h7-6h7-6h7-|
C|------------------------------------------------------------------|
D|------------------------------------------------------------------|
C|------------------------------------------------------------------|

D|------------------------------------------------------------------|
A|------------------------------------------------------------------|
F|-6h7-6h7-6h7-6h7-6h7-6h7-6h7-6h7-6h7-6h7-6h7-6h7-6h7-6-6h7p6------|
C|----------------------------------------------h7--h7--5------9p7h9|
D|------------------------------------------------------------------|
C|------------------------------------------------------------------|

Bridge (G2)
D|-----------------------------------------------------------------|
A|-----------------------------------------------------------------|
F|-----------------------------------------------------------------|
C|-9-9-9-9-9-9-9-9-5-5-5-5-5-5-5-5-7-7-7-7-7-7-7-7-5-5-5-5-5-5-5-5-|  4X
D|-9-9-9-9-9-9-9-9-5-5-5-5-5-5-5-5-7-7-7-7-7-7-7-7-5-5-5-5-5-5-5-5-|
C|-9-9-9-9-9-9-9-9-5-5-5-5-5-5-5-5-7-7-7-7-7-7-7-7-5-5-5-5-5-5-5-5-|

Chorus (same)

Outro (both)
D|-------------------------------------------------------|
A|-------------------------------------------------------|
F|-------------------------------------------------------|
C|-5--7--5--7--5--7--5--7---9-9-7--9-9-5-----------------|
D|-5--7--5--7--5--7--5--7---9-9-7--9-9-5-----------------|
C|-5--7--5--7--5--7--5--7---9-9-7--9-9-5-----------------|

this song is so sweeeeet!!! i think it's better than the original, because its
faster, i guess, but it is pretty much the same, but in dropped C instead of 
dropped D, and a few other changes.

--i almost blew the speakers out in my car listening to this song, cuz i turned
the volume, bass, and treble up all the way...it was sweet...


enjoy--play it loud, piss your sister off!!

Comments about this tab

Adam K - 2005-07-23

Don't you mean, CGCFAD instead of CDCFAD?


TFK_TFK - 2005-07-24

This song is amazing... Best song on the CD.

Love the solo


tsr4e - 2005-08-12

great tab


sXcountry - 2005-08-16

Yes i do mean CGCFAD instead of CDCFAD...good catch...


TFK_TFK - 2005-11-22

mazing tab!!!
GOod JOb on figureing out the solo... couldn't do that myself never mind play it.


sXcountry - 2005-11-26

I can hardly play it either--full speed.

I slowed down the song and put it together that way.

I know, I cheated...


flipsideoflife - 2006-08-10

u can still do it in drop d and just move every note your playin 2 frets back
the it Dadgbe


snobrdr - 2006-09-07

shouldnt the solo be one string higher?


underoathlover - 2006-10-12

I LOVE THIS SONG...THE TAB WAS SPOT ON!!! GOOD JOB WHOEVER DID IT!!!!!!


EpyonZERO - 2007-03-06

I slowed the ending of the solo down, and right before the turnaround, I think it goes like this, on the bending/tapping sounding part. The bend is a whole step

d--------------------------
a-------10p8---------10p8--
f--9b------h11-9b-------h11--
c--------------------------- several times


Add a comment/correction

Complimentary Christian Ringtones
Dadamobile and CGR have teamed up to bring your favorite Christian artists right to your phone. Sign up today and get 10 complementary ringtones!
Tab Country
Did you know CGR has a sister site w/ country guitar tabs? Well we do! Its called Tab Country. It has a great archive with a lot of country tabs.
Rockin Tabs
Are you looking for a site that has rock guitar tabs? Then Rockintabs.com is the place for you. It is a budding site with many rock guitar tabs. Submit your tab today.
Tab Gallery
Tab Gallery has a compilation of christian, rock, and country tabs all in one place. Come visit us.