Guitar Tabs
song title    band name

Join Us Today!

Don't strum alone...
be a part of the largest online Christian music community. Browse thousands of guitar tabs and chat w/ musicians like yourself.


It's Free!

This tab has been rated a 5.00 out of 5 for accuracy. (1 vote)Sorry, but you must be logged in to rate this tab.
Click here to log-in, or you can click here to register.
(Registration is free)

All songs owned by corresponding publishing company. If you make copies of any song on this website, be sure to report your usage to CCLI.
Submitted by: Awanabecop

Song: Speak Your Mind
Artist: 12 Stones
CD: Potter's Field
Copyright: 2004 Wind-Up Records

               Yeah believe it or not I 'm doing the whole song!!!!
               you might think it's impossible but it's not
               it's in drop C! but i tune drop C probably different
               than all of you. I have the first 3 strings in Standard tuning, 
               and the last 3 in Drop C tuning!!! The whole beginning of
               the song is on guitar one until dual guitars enter in for 
               the solo!!



Intro fig.1 
E---------------------------------------------------------
B--------------------------------------------------------
G--------------------------------------------------------
C---x-x---9h10--x---10h12--x--9h10--x--10h12---x-----------
G---x-x---9h10--x---10h12--x--9h10--x--10h12---x---10p9----
C---x-x---9h10--x---10h12--x--9h10--x--10h12---x-----------

Intro fig.2
E-----------------------------------------------------
B-----------------------------------------------------
G-------------------------------------------------------
C---x-x---9h10--x---10h12--x--9h10--x--10h12---x-----------
G---x-x---9h10--x---10h12--x--9h10--x--10h12---x---9------
C---x-x---9h10--x---10h12--x--9h10--x--10h12---x---------

Intro fig.3
E----------------------------------------------------
B---------------------------------------------------------
G----------------------------------------------------------
C---0----9h10--0---10h12--0--9h10--0--10h12---0---------------
G---0----9h10--0---10h12--0--9h10--0--10h12---0---10p9------
C---0----9h10--0---10h12--0--9h10--0--10h12---0---------------

Intro fig.4
E------------------------------------------------------
B-----------------------------------------------------
G------------------------------------------------------
C---0----9h10--0---10h12--0--9h10--0--10h12---0---------
G---0----9h10--0---10h12--0--9h10--0--10h12---0----9----
C---0----9h10--0---10h12--0--9h10--0--10h12---0----------


Intro fig.3

Intro fig.4

Vs. fig.1
"palm mute"                                                     
E--------------------------------------------------------------------
B-------------------------------------------------off-palm-mute------
G--------------------------------------------------10--9-------------
C--0--9--10--0--10--12--0--9--10--0--10--12--0---------------------
G----------------------------------------------------------------------
C----------------------------------------------------------------------

Vs. fig.2
"palm mute"                                                        
E-------------------------------------------------------------------
B--------------------------------------------------off-palm-mute-----
G------------------------------------------------------10------------
C--0--9--10--0--10--12--0--9--10--0--10--12--0-----------------------
G------------------------------------------------------------------
C--------------------------------------------------------------------

Vs. fig.1

Vs. fig.2

Intro fig.3

Intro fig.4


Pre-Chorus "palm mute"
E--------------------------------------------------------------------
B----------------------------------------------------------------------
G---------------------------------------------------off-palm-mute----
C--0--0---9--10--0--10--12--0--9--10--0--10--12--0------------------
G--0--0---9--10--0--10--12--0--9--10--0--10--12--0----10p9-----------
C--0--0---9--10--0--10--12--0--9--10--0--10--12--0-------------------

Intro fig.2


Chorus (Listen to CD for strum pattern.)
          
E----------------------------------------------
B-------------------------------------------------
G--------------------------------------------------
C---0---10---5---8---10----0---10---5---8---10-----
G---0---10---5---8---10----0---10---5---8---10----
C---0---10---5---8---10----0---10---5---8---10-----


Intro fig.3

E----------------------------------------
B-----------------------------------------
G-----------------------------------------
C---0----9h10--0---10h12--0--9h10--10------
G---0----9h10--0---10h12--0--9h10--10-----
C---0----9h10--0---10h12--0--9h10--10------

Vs. fig.1

Vs. fig.2

Vs. fig.1

Vs.fig.2

Pre-Chrorus

Chorus


Solo (guitar 2 enters at the same time playing the "Chorus" listen for timing)
gtr.1
E-----------------------------------------------------------
B------------------------------------------------------------
G---------3--3h5--5---8---7hp8-----7h8--10---8--8--8p10----
C---5h7-------------------------10------------------------
G-------------------------------------------------------------
C----------------------------------------------------------

gtr.1
E---------------------------------------------------------
B-----------13----------------------------------------------
G---8s10------12-12-12-12-10-10-12-12--10b-8p5---8--8p5------
C-------------------------------------------------------------
G-------------------------------------------------------------
C---------------------------------------------------------------

gtr.1                                    5x   
E----------------------------------------15----------------------
B---------8--11-11--13p11p8--11h13--16---19b---16--13hp16----
G--8s10---------------------------------------------------------
C----------------------------------------------------------------
G------------------------------------------------------------------
C-----------------------------------------------------------------

gtr1  5x    5x  
E----------------------------------------------------------------
B-----13----15----13-11hp13--------------------------------------
G-----16b---18b-----------------15-12-10-8-10-8--10p8p5--8-10-----
C---------------------------------------------------------------
G--------------------------------------------------------------
C--------------------------------------------------------------

gtr.1                                                 4x                                    5x
E-----------------------------------------------------------------------
B-----------13----------------------------------------8---8-------------
G--8--8s10------12-12-12-12-10-10-12-12--10b-8p5--8---11b-11bs8--5h8--5--
C------------------------------------------------------------------------
G------------------------------------------------------------------------
C------------------------------------------------------------------------

Chorus (Listen to CD for strum pattern.)
gtr.2   play at the same time with guitar.1 from the beginning of the solo
E--------------------------------------------
B--------------------------------------------
G-------------------------------------------
C---0---10---5---8---10----0---10---5-----
G---0---10---5---8---10----0---10---5------
C---0---10---5---8---10----0---10---5------

Chorus (Listen to CD for strum pattern.)
gtr.2   play at the same time with guitar.1 from the beginning of the solo
E-----------------------------------------------------------------
B---------------------------------------------------------------
G----------------------------------------------------------------
C----x-x---9h10--x--10h12--x--9h10--x--10h12--x-----------0-----
G----x-x---9h10--x--10h12--x--9h10--x--10h12--x--10p9-----0-----
C----x-x---9h10--x--10h12--x--9h10--x--10h12--x-----------0-----

Vs. fig.1

Vs. fig.2

Vs. fig.1

Vs. fig.2

Intro 3 

Intro 4

Intro 3

Intro 4

Outro
E-------------------------------------------
B-----------------------------------------
G-------------------------------------------
C---0---10---5---8---10----0---10---5---
G---0---10---5---8---10----0---10---5---
C---0---10---5---8---10----0---10---5---

E--------------------------------------------------------------
B----------------------------------------------------------------
G--------------------------------------------------------------
C----x-x---9h10--x--10h12--x--9h10--x--10h12--x-----------0-----
G----x-x---9h10--x--10h12--x--9h10--x--10h12--x--10p9-----0-----
C----x-x---9h10--x--10h12--x--9h10--x--10h12--x-----------0-----

Well, that's all!!! this tab took a while! comment it!

In Christ,

Josiah

Comments about this tab

Awanabecop - 2005-10-08

Sorry guys I shoud've tabbed it normal I didn't want to break my strings(which are very old) so that's why i tuned it different. If you all want to tune it normal just tune the last three FAD for drop c, and on my tab everyone of the frets indicated are a whole step down on the last three (in FAD). Other than that, all is well the solo is good it dosen't need a second look.

Thanks, In Christ,

Josiah


Awanabecop - 2005-10-08

Oh sorry when you play them. For instance
example
E--2-------
B--2-------
G--2------- would be

D---4------
A---4------
F---4------

sorry for the inconvieniance

Josiah


Add a comment/correction

Complimentary Christian Ringtones
Dadamobile and CGR have teamed up to bring your favorite Christian artists right to your phone. Sign up today and get 10 complementary ringtones!
Tab Country
Did you know CGR has a sister site w/ country guitar tabs? Well we do! Its called Tab Country. It has a great archive with a lot of country tabs.
Rockin Tabs
Are you looking for a site that has rock guitar tabs? Then Rockintabs.com is the place for you. It is a budding site with many rock guitar tabs. Submit your tab today.
Tab Gallery
Tab Gallery has a compilation of christian, rock, and country tabs all in one place. Come visit us.