Guitar Tabs
song title    band name

Join Us Today!

Don't strum alone...
be a part of the largest online Christian music community. Browse thousands of guitar tabs and chat w/ musicians like yourself.


It's Free!

This tab has been rated a 5.00 out of 5 for accuracy. (1 vote)Sorry, but you must be logged in to rate this tab.
Click here to log-in, or you can click here to register.
(Registration is free)

All songs owned by corresponding publishing company. If you make copies of any song on this website, be sure to report your usage to CCLI.
Submitted by: Fbar58

This is a beautiful single off of the new "Until my Heart Caves In" album 
coming Aug 30th!
- Tabbed by Fred Barrett

Standard Tuning- EADGBE
Riff A
e-----------------------------------------------------------------
B---10-------10----------10----10---------10------------12-------12
G------11-------11----11----------11---11----11------12-------12---
D-0--------0--------0--------0-------0-------------0--------0-----
A-----------------------------------------------------------------
E-----------------------------------------------------------------

e-------------------12-----
B-----12-----12--------14--
G---12-----12----14--------
D-0------0-----------------
A--------------------------
E--------------------------

Riff B (follows directly after riff a)

e-----------------------------------------------------------------
B---10-------10----------10----10---------10------------12-------12
G------11-------11----11----------11---11----11------12-------12---
D-0--------0--------0--------0-------0-------------0--------0-----
A-----------------------------------------------------------------
E-----------------------------------------------------------------

e-------------------------------
B-----12-----12-------12------12
G---12-----12------12------12---
D-0------0-------0-------0------
A-------------------------------
E-------------------------------

(VERSE 1)
Riff A
Riff B
Riff A
Riff B
Riff B

UPbeat 
e----------------------
B---------------X-X-X--
G---------------7-7-7--
D--X---X---X----5-4-5--
A--5---5---7-----------
E--2---3---5-----------


That's almost the whole song, this took me about 10 mintues to figure this 
out. I will get everything down as soon as I get time. Enjoy! 


Comments about this tab

undertone - 2005-10-13

Excellent tab - I play the intro/verse in a different position. I just posted my version but your version showed me errors in mine. Here is my updated intro/verse (slightly different from what I posted).

The basic verse progression sounds like D-G-D-G
riff played like this - listen to the song for when to slide up to the 12th fret on each verse

First - 1x intro / 2x 1st verse
e|-----5---5-----5-5-----5---5-|-----7---7-----7-7-----------12-|
b|---7---7---7---------7---7---|---8---8---8---------8/12-12----|
g|-------------7-----7---------|-------------7-----7------------|
d|-0---------------------------|-0------------------------------|
a|-----------------------------|--------------------------------|
E|-----------------------------|--------------------------------|

e|-----5---5-----5-5-----5---5-|-----7---7-----7-7-----7---7----|
b|---7---7---7---------7---7---|---8---8---8---------8---8------|
g|-------------7-----7---------|-------------7-----7------------|
d|-0---------------------------|-0------------------------------|
a|-----------------------------|--------------------------------|
E|-----------------------------|--------------------------------|

Here is how I play the instrumental lead-in to the chorus. This is also slightly different from what I posted. Again, you showed me my error. But, it looks like you put D-D/C#-D on the wrong string. Also, I think that it ends on G.

1x (listen for timing)
e|----------------------------|
b|----------------------------|
g|----------7-7-7-------------|
d|-5--5--7--7-7-7--5----------|
a|-5--5--7--5-4-5--5----------|
E|-2--3--5---------3----------|

Thanks for the help.
Gary


undertone - 2005-10-20

I did not fully correct my previous post ~ sorry ~ this is better

First - 1x intro / 2x 1st verse
e|---5-----5-----5-5----5---5--|---7-----7-----7-7-----------12-|
b|-----7-----7-------7----7----|-----8-----8---------8/12-12----|
g|-------7-----7-------7-------|-------7-----7-----7------------|
d|-0---------------------------|-0------------------------------|
a|-----------------------------|--------------------------------|
E|-----------------------------|--------------------------------|


e|---5-----5-----5-5----5---5--|---7-----7-----7-7-----7---7----|
b|-----7-----7-------7----7----|-----8-----8-------8-----8------|
g|-------7-----7-------7-------|-------7-----7-------7----------|
d|-0---------------------------|-0------------------------------|
a|-----------------------------|--------------------------------|
E|-----------------------------|--------------------------------|

Basically, I had the picking pattern backwards before


mab0111 - 2005-10-20

I posted a version of this on TabWiki a while ago... check it out at

http://www.tabwiki.com/index.php/Audio_Adrenaline/King


SuperGirl23 - 2006-01-16

I'm prett sure this is the riff played at end while the song fades out:
E-------------------------------------------|
B------------5---------------------5-7-5----|
D-----7-6-7-----7--6-7------7-6-7---------7-|
G-------------------------------------------|
A--5---------------------5------------------|
E-------------------------------------------|


tl_guitarnut - 2006-07-18

great tab


Add a comment/correction

Complimentary Christian Ringtones
Dadamobile and CGR have teamed up to bring your favorite Christian artists right to your phone. Sign up today and get 10 complementary ringtones!
Tab Country
Did you know CGR has a sister site w/ country guitar tabs? Well we do! Its called Tab Country. It has a great archive with a lot of country tabs.
Rockin Tabs
Are you looking for a site that has rock guitar tabs? Then Rockintabs.com is the place for you. It is a budding site with many rock guitar tabs. Submit your tab today.
Tab Gallery
Tab Gallery has a compilation of christian, rock, and country tabs all in one place. Come visit us.