Guitar Tabs
song title    band name

Join Us Today!

Don't strum alone...
be a part of the largest online Christian music community. Browse thousands of guitar tabs and chat w/ musicians like yourself.


It's Free!

This tab has been rated a 4.25 out of 5 for accuracy. (4 votes)Sorry, but you must be logged in to rate this tab.
Click here to log-in, or you can click here to register.
(Registration is free)

All songs owned by corresponding publishing company. If you make copies of any song on this website, be sure to report your usage to CCLI.
Submitted by: surferdude9375

King - Tree 63
Capo 1

Intro:
Gtr 1: 
e|-----10------10------9------10-----10----------10------10------9------10---
B|--10------10------10-----10-----10----10----10------10------10-----10------
G|7-------7-------7------7------7--------------------------------------------
D|------------------------------------------9-------9-------9------9---------
A|---------------------------------------------------------------------------
E|---------------------------------------------------------------------------

e|-----10----------10------10------9------10------10----------10------10-----
B|--10----10----10------10------10-----10------10----10----10------10------10
G|-------------------------------------------------------0-------0-------0---
D|9-----------7-------7-------7------7-------7-------------------------------
A|---------------------------------------------------------------------------
E|---------------------------------------------------------------------------

e|-9------10------10-----
B|-----10------10----10--
G|---0-------0-----------
D|-----------------------
A|-----------------------
E|-----------------------

e|---------------------------------------------------------
B|---------------------------------------------------------
G|--12-12-12-12-11-11-11-11-9-9-9-9-7-7-7-7----------14>---
D|---x--x--x--x--x--x--x--x-x-x-x-x-x-x-x-x----------x-----
A|--10-10-10-10--9--9--9--9-7-7-7-7-5-5-5-5----------12>---
E|---------------------------------------------------------

Gtr 2:
e|-------------------------------
B|-------------------------------
G|-7----4----2-------------------
D|-7----4----2----5----2---------
A|-5----2----0----5----2----5----
E|----------------3----0----2----

Verse:
D  Bm7  Asus  G2
D/F#  G2  Asus
Em7  D/F#  G2

Chorus:
D  A/C  G/B  Asus
G2  D/F#
Em7  G2
D  A/C#  G/B  Asus
G  A  D  G/B  D/A  G2

Bridge
D  Bm7  Asus
G2  D  Bm7  Asus

Comments about this tab

Followthewolves - 2008-09-13

good job but. i tried it with the capo and it sounded off...take the capo of and move everything down 1 fret. So instead of it being 12 it'll be 11. i think.
x x
9 13


Followthewolves - 2008-09-13

12 11
x x
9 13


Add a comment/correction

Complimentary Christian Ringtones
Dadamobile and CGR have teamed up to bring your favorite Christian artists right to your phone. Sign up today and get 10 complementary ringtones!
Tab Country
Did you know CGR has a sister site w/ country guitar tabs? Well we do! Its called Tab Country. It has a great archive with a lot of country tabs.
Rockin Tabs
Are you looking for a site that has rock guitar tabs? Then Rockintabs.com is the place for you. It is a budding site with many rock guitar tabs. Submit your tab today.
Tab Gallery
Tab Gallery has a compilation of christian, rock, and country tabs all in one place. Come visit us.