Guitar Tabs
song title    band name

Join Us Today!

Don't strum alone...
be a part of the largest online Christian music community. Browse thousands of guitar tabs and chat w/ musicians like yourself.


It's Free!

Audio Adrenaline - Jesus Movement

This tab has been rated a 5.00 out of 5 for accuracy. (1 vote)Sorry, but you must be logged in to rate this tab.
Click here to log-in, or you can click here to register.
(Registration is free)

All songs owned by corresponding publishing company. If you make copies of any song on this website, be sure to report your usage to CCLI.
Title: Jesus Movement
Artist: Audio Adrenaline
Album: Underdog
Written by Mark Stuart, Will McGinniss, Bob Herdman (Up In The Mix ) 
Tyler Burkum ( Flicker U.S.A. Publishing, B.M.I) 

Tabbed by Robert Hammond (bobbyghandi@yahoo.com) 

Intro (Guitar with Harmonica)

e- --7-7-7-7-8-5-7-3*---3/7-7-7-7-8-5-7-3*
B- ---------------------------------------
G- ---------------------------------------
D- ---------------------------------------
A- ---------------------------------------
E- ---------------------------------------

*tremelow (pick rapidly)

Intro after guitar and harmonica

e- ----------------------------
B- ----------------------------
G- ----------------------------
D- ------------------2-2-3-5-5-
A- ---2-2-3-5-5--3-3-----------
E- 3-3-------------------------

Fill Riff 1
e- -------------------
B- 3-3-3-3-3—-3-5-8-7-
G- 4-4-4-4-4—-4-5-9-7-
D- -------------------
A- -------------------
E- -------------------

Chorus Riff

e- 10-10-10-10-08---08-08-08-08-07
B- 12-12-12-12-10---10-10-10-10-08
G- -------------------------------
D- -------------------------------
A- -------------------------------
E- -------------------------------

Second part of verse you can also use this riff

e- X-X-X-X-X-X-X-X-X-X-X-X-X-X-X-X
B- X-X-X-X-X-X-X-X-X-X-X-X-X-X-X-X
G- X-X-X-X-X-X-X-X-X-X-X-X-X-X-X-X
D- X-X-X-X-X-X-X-X-X-X-X-X-X-X-X-X
A- 5-5—--12-12—--10-10-----12—12--
E- 3-3---10-10---08-08---10/12/10-

Verse
         G         D        C  D
Have you ever been so inclined 
     G       D        C   D
Yeah, is it on your mind 
           G             D     C   D      (fill riff)
The thought we're the Lord's lone protege
           G               D    C     D
Well I thought we were the only hope 
          G         D      C   D  
Yeah, the world's safety rope 
     G             D   C      C      Am7
Americana has come, come to save the day 
Am7
Imagine my surprise 
D
To realize 

CHORUS- 
(Chorus Riff)
Everywhere I go I can see 
(Chorus Riff)
I'm not the only one 
Am7     D            G (Backpick ska style)
Moving moving to Jesus 

Do Intro Riff 2x
Verse 2

I went down to Mexico 

Mi amigo 

And I found Jesus living outside the USA 

Imagine my surprise To realize

Repeat Chorus

Comments about this tab

No comments/corrections found. Add your own

Complimentary Christian Ringtones
Dadamobile and CGR have teamed up to bring your favorite Christian artists right to your phone. Sign up today and get 10 complementary ringtones!
Tab Country
Did you know CGR has a sister site w/ country guitar tabs? Well we do! Its called Tab Country. It has a great archive with a lot of country tabs.
Rockin Tabs
Are you looking for a site that has rock guitar tabs? Then Rockintabs.com is the place for you. It is a budding site with many rock guitar tabs. Submit your tab today.
Tab Gallery
Tab Gallery has a compilation of christian, rock, and country tabs all in one place. Come visit us.