Guitar Tabs
song title    band name

Join Us Today!

Don't strum alone...
be a part of the largest online Christian music community. Browse thousands of guitar tabs and chat w/ musicians like yourself.


It's Free!

This tab has been rated a 4.40 out of 5 for accuracy. (5 votes)Sorry, but you must be logged in to rate this tab.
Click here to log-in, or you can click here to register.
(Registration is free)

All songs owned by corresponding publishing company. If you make copies of any song on this website, be sure to report your usage to CCLI.
Submitted by: skid

hey i'm sorry but i only have the chorus but the verse is really close
to the chorus just fool around w/ the chords

chorus
e|----------------------| repeat as needed
B|----------------------|
G|----------------------|
D|-11-x8-6-x8-8-x8-4-x8-|
A|-9-----4----6----2----|
E|----------------------|

very very simple and not very thurough i know 
but hey john reuben is hip hop not rock

Comments about this tab

neverforsaken40 - 2005-08-14

The verse is super easy
it goes like this........

e---------------------------------------------
b---------------------------------------------
g---------------------------------------------
d---------------------------------------------
a-9999-9-9-9-999--11--13----------------13--11
E------------------------9999-9-9-9-999-------

e---------------------------------------------
b---------------------------------------------
g---------------------------------------------
d--------------------------------------------
a---------------------------------11--13-----
E-11-11-11-11--11-11-11-11-11-11-------------

e--------------------------------------------
b--------------------------------------------
g--------------------------------------------
d--------------------------------------------
a-----------------13--11--------------------
E-7777-7-7-7-777----------------------------








skid - 2005-08-20

hey thanks... atleast not everybody is lazy like me and doesnt feel like tabbin out whole songs... so props to you for not being lazy


OSUdude10 - 2006-02-08

yea im 2 lazy too thx


Add a comment/correction

Complimentary Christian Ringtones
Dadamobile and CGR have teamed up to bring your favorite Christian artists right to your phone. Sign up today and get 10 complementary ringtones!
Tab Country
Did you know CGR has a sister site w/ country guitar tabs? Well we do! Its called Tab Country. It has a great archive with a lot of country tabs.
Rockin Tabs
Are you looking for a site that has rock guitar tabs? Then Rockintabs.com is the place for you. It is a budding site with many rock guitar tabs. Submit your tab today.
Tab Gallery
Tab Gallery has a compilation of christian, rock, and country tabs all in one place. Come visit us.