Guitar Tabs
song title    band name

Join Us Today!

Don't strum alone...
be a part of the largest online Christian music community. Browse thousands of guitar tabs and chat w/ musicians like yourself.


It's Free!

This tab has been rated a 4.80 out of 5 for accuracy. (5 votes)Sorry, but you must be logged in to rate this tab.
Click here to log-in, or you can click here to register.
(Registration is free)

All songs owned by corresponding publishing company. If you make copies of any song on this website, be sure to report your usage to CCLI.
Submitted by: Texrab

Artist: David Crowder Band
Song: Revolutionary Love
Album: Illuminate


          Here's an awesome song from David Crowder and its also really easy and
simple. Well here it is.


Intro: Start on a C#

e|---------------------|
B|---------------------|
G|--8^-5^-3p1h3p1h3p1--|
D|---------------------| x4
A|---------------------|
E|---------------------|

Verse 1: Mainly bass but faintly strum a G# until he sings "Illumination meets 
us here meets us here" guitar 2 play the following (im not sure if its guitar or
keyboard)...

e|--------------------------------------------------------------|
B|--------21-------21------------------------------21-------21--|
G|-----20-------20-------20----20---------20----20-------20-----|
D|--18-------18-------18----18---------18----18-------18--------| play through
A|--------------------------------------------------------------| verse
E|--------------------------------------------------------------|

Pre-Chorus:

  -Guitar 1-

e|---------------------------------------------------------------|
B|---------------------------------------------------------------|
G|-----------6-6-6-6----------------------------6-6-6-6-6-6-6-6--|
D|--3-3-3-3--6-6-6-6--6-6-6-6-6-6-6-6--3-3-3-3--6-6-6-6-6-6-6-6--|
A|--3-3-3-3--4-4-4-4--6-6-6-6-6-6-6-6--3-3-3-3--4-4-4-4-4-4-4-4--|
E|--1-1-1-1-----------4-4-4-4-4-4-4-4--1-1-1-1-------------------|

  -Guitar 2-

e|-------------------8h9p8h9p8h9p8h9------------------|
B|--6h8p6h8p6h8p6h8------------------8h9p8h9p8h9p8h9--|
G|----------------------------------------------------|
D|----------------------------------------------------|then repeat but leave out
A|----------------------------------------------------|the last 8h9p8
E|----------------------------------------------------|

Chorus:

e|--------------------------------------------------------------------------|
B|--------------------------------------------------------------------------|
G|--------------------------6-6-6-6-6-6-6-------------------6-6-6-6-6-6-6-6-|
D|--6-6-6-6-6-6-6--3-3-3-3--6-6-6-6-6-6-6--6-6-6-6-6-6-6-6--6-6-6-6-6-6-6-6-|x2
A|--6-6-6-6-6-6-6--3-3-3-3--4-4-4-4-4-4-4--6-6-6-6-6-6-6-6--4-4-4-4-4-4-4-4-|
E|--4-4-4-4-4-4-4--1-1-1-1-----------------4-4-4-4-4-4-4-4------------------|

Intro: x2

Verse 2: guitar 2 plays part from the start unlike previous verse and after each
line is said guitar 1 plays the following...

e|----------------------|
B|----------------------|
G|--13-13--11/13\11/13--|
D|--13-13--11/13\11/13--| play through chorus
A|--11-11---9/11\-9/11--|
E|----------------------|

Pre-Chorus:

Chorus: x4

Interlude:

  -Guitar 1-                                   -Guitar 2-

e|------------------------------------|   |------------------8h9p8h9p8h9p8h9-|
B|------------------------------------|   |--6h8p6h8p6h8p6h8-----------------|
G|-------------------6-6-6-6-6-6-6-6--|   |----------------------------------|
D|--3-3-3-3-3-3-3-3--6-6-6-6-6-6-6-6--|x4 |----------------------------------|x4
A|--3-3-3-3-3-3-3-3--4-4-4-4-4-4-4-4--|   |----------------------------------|
E|--1-1-1-1-1-1-1-1-------------------|   |----------------------------------|

Bridge:

e|-----------------------------------------------------|
B|-----------------------------------------------------|
G|------------------------------------6-6-6-6-6-6-6-6--|
D|--6-6-6-6-6-6-6-6--8-8-8-8-8-8-8-8--6-6-6-6-6-6-6-6--| x2
A|--6-6-6-6-6-6-6-6--8-8-8-8-8-8-8-8--4-4-4-4-4-4-4-4--|
E|--4-4-4-4-4-4-4-4--6-6-6-6-6-6-6-6-------------------|

End on C# then G#

          There it is. Have fun and keep playing. Please rate this tab.
                              -Anthony Bifano

Comments about this tab

av88 - 2005-07-25

It sounds pretty good to me. :)


Nath - 2005-08-27

Nice tab, just a couple of things to point out...
Intro: I would have thought the guitar part would be something like...
G|---8^-5^-3-1--1-3-5--|... but that's just what I'm hearing listening to it now, so I could be wrong, cause I haven't played it yet... ;D
Verse 1: the part you have down as guitar 2 or keys is more likely to be keys. If it is guitar, I WANT THAT EFFECT! But yeah, most of that kind of sound is gonna come from keys...
Also, Verse 2: The guitar 1 part actually swaps between two different guitars.
And it sounds like it's over an octave and not the full 5th... but then, I could be wrong again...
But That's a really grood tab you got there!
Keep up the grood work!


mboogman - 2006-03-01

This song was recorded with the guitars tuned down to Eb. Actually, most of the album was. If you go to the band website, you can look at the chords they are going by. Revolutionary love puts the song in the key of D, tuned dow a half step (which makes it Db/C#)


Alex_face - 2006-08-16

Perfect tab. EXCEPT......................
The bridge is a modified intro riff. It's easy to figure out, but I'm too lazy to post it. What's here is good and right, but if you want the full effect of the song, you'll try that.


Add a comment/correction

Complimentary Christian Ringtones
Dadamobile and CGR have teamed up to bring your favorite Christian artists right to your phone. Sign up today and get 10 complementary ringtones!
Tab Country
Did you know CGR has a sister site w/ country guitar tabs? Well we do! Its called Tab Country. It has a great archive with a lot of country tabs.
Rockin Tabs
Are you looking for a site that has rock guitar tabs? Then Rockintabs.com is the place for you. It is a budding site with many rock guitar tabs. Submit your tab today.
Tab Gallery
Tab Gallery has a compilation of christian, rock, and country tabs all in one place. Come visit us.