Guitar Tabs
song title    band name

Join Us Today!

Don't strum alone...
be a part of the largest online Christian music community. Browse thousands of guitar tabs and chat w/ musicians like yourself.


It's Free!

This tab has been rated a 2.00 out of 5 for accuracy. (2 votes)Sorry, but you must be logged in to rate this tab.
Click here to log-in, or you can click here to register.
(Registration is free)

All songs owned by corresponding publishing company. If you make copies of any song on this website, be sure to report your usage to CCLI.
Submitted by: mi_koala

Switchfoot - Stars

Tabbed by - Miko Savady
**Drop-D tuning**
Just follow the song to get strumming pattern.
Hope its not too confusing! Enjoy! Switchfoot rules!

*Intro
Gtr 1
e|-----x---x-----x---x------x---x---x-----x---x-----x---x--x-x-x-------------|
B|-----x---x-----x---x------x---x---x-----x---x-----x---x--x-x-x-------------|
G|-----6---7-----11--9------13--16--14----6---7-----11--9--9-9-9-------------|
D|-----x---x-----x---x------x---x---x-----x---x-----x---x--x-x-x-------------|2x
A|-----4---5-----9---7------11--14--12----4---5-----9---7--7-7-7-------------|
D|-----x---x-----x---x------x---x---x-----x---x-----x---x--x-x-x-------------|
*on 2nd repeat, keep dropped string open instead of muted.

Gtr 2
e|-x-------------------------------------------------------------------------|
B|-3-------------------------------------------------------------------------|
G|-2-------------------------------------------------------------------------|
D|-0-------------------------------------------------------------------------|2x
A|-0-*repeat constantly------------------------------------------------------|
D|-0-------------------------------------------------------------------------|


**Sequence 1
Gtr 1
e|-------x-x-----x-------x-----x-x-|-------x-x-----x-------x-x-x-x-----------|
B|-------x-x-----x-------x-----x-x-|-------x-x-----x-------x-x-x-x-----------|
G|-------6-7-----11------9-----6-7-|-------5-6-----11------9-9-9-9-----------|
D|-------x-x-----x-------x-----x-x-|-------x-x-----x-------x-x-x-x-----------|2x
A|-------4-5-----9-------7-----4-5-|-------4-5-----9-------7-7-7-7-----------|
D|-------x-x-----x-------x-----x-x-|-------x-x-----x-------x-x-x-x-----------|

Gtr 2
e|---------------------------------|-----------------------------------------|
B|---------------------------------|-----------------------------------------|
G|---------------------------------|-----------------------------------------|
D|-0-2-0-----0-7---0-4-5---0-2-----|-0-2-0-----0-7---0-4-5---2-2-2-----------|2x
A|-0-2-0-----0-7---0-4-5---0-2-----|-0-2-0-----0-7---0-4-5---2-2-2-----------|
D|-0-2-0-----0-7---0-4-5---0-2-----|-0-2-0-----0-7---0-4-5---2-2-2-----------|



**Verse 1
Gtr 1 and 2
e|-x---x---x---x---x---x---x---x---x---x---x---x---x---x---x---x---x---x-----|
B|-3---x---3---x---x---x---x---3---x---3---x---x---x---x---x---x---x---x-----|
G|-2---x---2---x---x---7---6---2---x---2---x---x---7---6---x---x---x---x-----|
D|-0---5---0---10--5---7---7---0---5---0---10--5---7---7---5---7---9---10----|
A|-0---5---0---10--5---7---7---0---5---0---10--5---7---7---5---7---9---10----|
D|-0---5---0---10--5---7---7---0---5---0---10--5---7---7---5---7---9---10----|


**Chorus
Gtr 1
e|--x-x-x-x-----x-x-x-x-----x-x-x-x----------------x-x-----x-------x-x-x-x---|
B|--x-x-x-x-----x-x-x-x-----x-x-x-x----------------x-x-----x-------x-x-x-x---|
G|--119-7-2-----119-7-x-----119-7-x----------------5-6-----11------9-9-9-9---|
D|--x-x-x-0-----x-x-x-5-----x-x-5-5----------------x-x-----x-------x-x-x-x---|
A|--9-7-5-0-----9-7-5-5-----9-7-x-5----------------4-5-----9-------7-7-7-7---|
D|--x-x-x-x-----x-x-x-5-----x-x-x-5----------------x-x-----x-------x-x-x-x---|

Gtr 2
e|--x-----------x-----------x-----x------------------------------------------|
B|--3-----------x-----------x-----x------------------------------------------|
G|--2-----------x-----------x-----x------------------------------------------|
D|--0-----------5-----------10----5----------0-2-0-----0-7---0-4-5---2-2-2---|
A|--0-----------5-----------10----5----------0-2-0-----0-7---0-4-5---2-2-2---|
D|--0-----------5-----------10----5----------0-2-0-----0-7---0-4-5---2-2-2---|



Gtr 1
e|-x-x-x-x------x-x-x-x-----------------------------------------------|
B|-x-x-x-x------x-x-x-x-----------------------------------------------|
G|-119-7-x------119-7-x-----------------------------------------------|
D|-x-x-x-5------x-x-x-7-----------------***Play Sequence 1 once-------|
A|-9-7-5-5------9-7-5-7-----------------------------------------------|
D|-x-x-x-5------x-x-x-7-----------------------------------------------|

Gtr 2
e|-x------------x-----x-----------------------------------------------|
B|-x------------x-----x-----------------------------------------------|
G|-x------------x-----x-----------------------------------------------|
D|-5------------2-----7-----------------***Play Sequence 1 once-------|
A|-5------------2-----7-----------------------------------------------|
D|-5------------2-----7-----------------------------------------------|



**Verse 2 - repeat chords from Verse 1


***Repeat Chorus

Bridge
Gtr 1 and 2
e|-x--x--x------------------------------------x--x--x------|
B|-x--x--x------------------------------------x--x--x------|
G|-x--x--x------------------------------------x--x--x------|
D|-5--4--7----***Play 1st half of Sequence 1--5--4--7------|
A|-5--4--7------------------------------------5--4--7------|
D|-5--4--7------------------------------------5--4--7------|



e|-x---x---x---x---x---x---x----x--|
B|-x---x---x---x---x---x---x----x--|
G|-x---x---x---x---x---x---x----x--|
D|-5---7---4---5---5---7---9----10-|
A|-5---7---4---5---5---7---9----10-|
D|-5---7---4---5---5---7---9----10-|



Gtr 1
e|-x-----x-----------x-x-----x-------x-x-x-x-----x---x---x-|
B|-x-----x-----------x-x-----x-------x-x-x-x-----x---x---x-|
G|-x-----x-----------6-7-----11------9-9-9-9-----x---x---x-|
D|-10----5-----------x-x-----x-------x-x-x-x-----5---2---7-|
A|-10----5-----------4-5-----9-------7-7-7-7-----5---2---7-|
D|-10----5-----------x-x-----x-------x-x-x-x-----5---2---7-|

Gtr 2
e|-x-----x---------------------------------------x---x---x-|
B|-x-----x---------------------------------------x---x---x-|
G|-x-----x---------------------------------------x---x---x-|
D|-10----5-----0-2-0-----0-7---0-4-5---2-2-2-----5---2---7-|
A|-10----5-----0-2-0-----0-7---0-4-5---2-2-2-----5---2---7-|
D|-10----5-----0-2-0-----0-7---0-4-5---2-2-2-----5---2---7-|



Gtr 1
e|-------x-x-----x-------x-----x-x-|-------x-x-----x-------x-x-x-x----|
B|-------x-x-----x-------x-----x-x-|-------x-x-----x-------x-x-x-x----|
G|-------6-7-----11------9-----6-7-|-------5-6-----11------9-9-9-9----|
D|-------x-x-----x-------x-----x-x-|-------x-x-----x-------x-x-x-x----|
A|-------4-5-----9-------7-----4-5-|-------4-5-----9-------7-7-7-7----|
D|-------x-x-----x-------x-----x-x-|-------x-x-----x-------x-x-x-x----|

Gtr 2
e|---------------------------------|----------------------------------|
B|---------------------------------|----------------------------------|
G|---------------------------------|----------------------------------|
D|-0-2-0-----0-7---0-4-5---0-2-----|-0-2-0-----0-7---0-4-5---2-2-2----|
A|-0-2-0-----0-7---0-4-5---0-2-----|-0-2-0-----0-7---0-4-5---2-2-2----|
D|-0-2-0-----0-7---0-4-5---0-2-----|-0-2-0-----0-7---0-4-5---2-2-2----|



Gtr 1
e|-------x-x-----x-------x-----x-x-|-------x-x-----x-------x---x-x-x--|
B|-------x-x-----x-------x-----x-x-|-------x-x-----x-------x---x-x-x--|
G|-------6-7-----11------9-----6-7-|-------5-6-----11------9---6-9-9--|
D|-------x-x-----x-------x-----x-x-|-------x-x-----x-------x---x-x-x--|
A|-------4-5-----9-------7-----4-5-|-------4-5-----9-------7---4-7-7--|
D|-------x-x-----x-------x-----x-x-|-------x-x-----x-------x---x-x-x--|

Gtr 2
e|---------------------------------|-------------------------------x--|
B|---------------------------------|-------------------------------3--|
G|---------------------------------|-------------------------------2--|
D|-0-2-0-----0-7---0-4-5---0-2-----|-0-2-0-----0-7---0-4-5---0-2-2-0--|
A|-0-2-0-----0-7---0-4-5---0-2-----|-0-2-0-----0-7---0-4-5---0-2-2-0--|
D|-0-2-0-----0-7---0-4-5---0-2-----|-0-2-0-----0-7---0-4-5---0-2-2-0--|

Gtr 3
e|-x-----x--------x-------x---------x----x--x------x-------x-------x--|
B|-x-----x--------x-------x---------x----x--x------x-------x-------x--|
G|-16----14-------21------19--------14---12-11-----19------12------9--|
D|-x-----x--------x-------x---------x----x--x------x-------x-------x--|
A|-14----12-------19------17--------12---10-9------17------10------7--|
D|-x-----x--------x-------x---------x----x--x------x-------x-------0--|

Comments about this tab

Adam K - 2006-04-14

U make it more complicated than it is.


Add a comment/correction

Complimentary Christian Ringtones
Dadamobile and CGR have teamed up to bring your favorite Christian artists right to your phone. Sign up today and get 10 complementary ringtones!
Tab Country
Did you know CGR has a sister site w/ country guitar tabs? Well we do! Its called Tab Country. It has a great archive with a lot of country tabs.
Rockin Tabs
Are you looking for a site that has rock guitar tabs? Then Rockintabs.com is the place for you. It is a budding site with many rock guitar tabs. Submit your tab today.
Tab Gallery
Tab Gallery has a compilation of christian, rock, and country tabs all in one place. Come visit us.