Guitar Tabs
song title    band name

Join Us Today!

Don't strum alone...
be a part of the largest online Christian music community. Browse thousands of guitar tabs and chat w/ musicians like yourself.


It's Free!

This tab has been rated a 3.60 out of 5 for accuracy. (10 votes)Sorry, but you must be logged in to rate this tab.
Click here to log-in, or you can click here to register.
(Registration is free)

All songs owned by corresponding publishing company. If you make copies of any song on this website, be sure to report your usage to CCLI.
Submitted by: HolyBlood8

Song: Aparitions Of Melody
Artist: Kids In The Way
Album: Aparitions Of Melody
Flicker Records

Standard Tuning
( )= only on last time
 h = hold
Intro
-------------------------------------
-------------------------------------
-------------------------------------
------------------------------------- x2
--44-7474--44-7474--22-5252--------(2)
-----------------------------2222----

Verse
-------------------------------------
-------------------------------------
-------------------------------------
------------------------------------- x2
--44-7474--44-7474--22-5252--------(2)
-----------------------------2222----

Chorus
------------------------------------------------
------------------------------------------------
--9999999999--9999999999--4444444444--4444444444
--9999999999--9999999999--4444444444--4444444444 x2
--7777777777--7777777777--2222222222--2222222222
------------------------------------------------

2nd Verse
--0--0--0---0--0--0-------------------------------
--0--0--0---0--0--0-------------------------------
--6--4--11--6--4--11------------------------------
--6--4--11--6--4--11------------------------------
--4--2--9---4--2--9---44-7474-44-7474-22-5252-----
----------------------------------------------2222

------------------------------------
------------------------------------
------------------------------------
------------------------------------ 
--44-7474--44-7474--22-5252--------2
-----------------------------2222---

Bridge
----------------------------------------------------
-19h--14h--19h--14h--19h--14h--16h--17h-------------
------------------------------------------2--4--4--4
------------------------------------------2--4--4--4
------------------------------------------0--2--2--2
----------------------------------------------------

Outro
-------------------------------------
-------------------------------------
-------------------------------------
------------------------------------- x5
--44-7474--44-7474--22-5252--------(2)
-----------------------------2222----

That's it have fun

Comments about this tab

underground - 2005-09-18

great job. One thing, at the end of the riff you don't hit D-2, it is D-4. It seems right other than that.


underground - 2005-09-20

Last Day of 1888
Kids in the Way- Apparitions of Melody
Flicker Records

For some reason I can't post my own tab, I don't know what I am doing wrong.
So I decided to do it here. I have most of "The Last Day of 1888".
This is a great song in DROP D.

It starts with the audio stuff then jumps into this riff.
NOT WRITTEN IN RYTHEMS hold for 4 counts

D-11--9--6--7
A-11--9--6--7
D-11--9--6--7

I don't have the complete verse. There is a guitar doing high picking that I
don't have. It is probubly a power-chord. Help if you can find it.
Despite that the lead plys this small lick before the words start

A-9--6-7

The Chorus is the intro riff except it goes through twice.
D-11--9--6--7
A-11--9--6--7
D-11--9--6--7 repeat

Palm mute the bridge
D-11--9--6--2
A-11--9--6--2
D-11--9--6--2 repeat about four times I think

During the bridge there are some high notes that i don't have.

Go back into the chorus and end on the high chord
D-11
A-11
D-11

This is right, I am pretty sure. Please help with the rest, just thought I would get it out here.
Awesome song, rock out


HolyBlood8 - 2005-09-26

the reason i have d-2 is cuz it's in standard tuning it's E-2


underground - 2005-09-26

I understand, you are right.
But the chorus, it switches every time, there are 4 chords in the chorus. I think the first one is right but it is not perfect.


underground - 2005-10-05

Hey, my tab did come up. Well, now two times the people see it.


CHyers - 2005-10-26

Hey, I saw them at Brighthouse feild in Clearwater Florida and i even talked to the lead singer and guitarist, they play this in drop d and on the chorus Bar it all the way to the top of the chord (looks like this)
--x-x-| x8 then --x-x-| x8
--x-x-| --x-x-|
--9-9-| --4-4-|
--9-9-| --4-4-|
--7-7-| --2-2-|
--7-7-| --2-2-|
Rmember this is all in Drop D so it gives a cool overone tonality to it.


CHyers - 2005-10-26

Hey, I saw them at Brighthouse feild in Clearwater Florida and i even talked to the lead singer and guitarist, they play this in drop d and on the chorus Bar it all the way to the top of the chord (looks like this)
--x-x-| x8 then --x-x-| x8
--x-x-| --x-x-|
--9-9-| --4-4-|
--9-9-| --4-4-|
--7-7-| --2-2-|
--7-7-| --2-2-|
Rmember this is all in Drop D so it gives a cool overone tonality to it.


HolyBlood8 - 2005-11-17

which song are you talking about?????????


gnarlynarwhal1 - 2006-02-16

this song is SO good, it's got a catchy tune.


gnarlynarwhal1 - 2006-02-16

hmm, i can't figure out the chorus, it doesn't sound right.


akaukal - 2006-03-22

the chorus just alternates between the A, F#m, and B power chords


young_rocker_06 - 2006-03-28

when tuning to drop d, do i take all my strings a half step up or down or what?


christ 4 real - 2006-04-07

for drop d, you turn your low e string down one step. its easier with an electric tuner


ice_wiz - 2006-04-28

What, no solo?


F.O.G. - 2006-05-11

for young rocker if you dont have a tuner on hand you tune to the low E string 7th fret and the A or tryto do octaves on the other d string.

A 0
E 7


F.O.G. - 2006-05-11

for young rocker if you dont have a tuner on hand you tune to the low E string 7th fret and the A or tryto do octaves on the other d string.

A 0
E 7


F.O.G. - 2006-05-11

oops! didn't mean to do that


Add a comment/correction

Complimentary Christian Ringtones
Dadamobile and CGR have teamed up to bring your favorite Christian artists right to your phone. Sign up today and get 10 complementary ringtones!
Tab Country
Did you know CGR has a sister site w/ country guitar tabs? Well we do! Its called Tab Country. It has a great archive with a lot of country tabs.
Rockin Tabs
Are you looking for a site that has rock guitar tabs? Then Rockintabs.com is the place for you. It is a budding site with many rock guitar tabs. Submit your tab today.
Tab Gallery
Tab Gallery has a compilation of christian, rock, and country tabs all in one place. Come visit us.