Guitar Tabs
song title    band name

Join Us Today!

Don't strum alone...
be a part of the largest online Christian music community. Browse thousands of guitar tabs and chat w/ musicians like yourself.


It's Free!

This tab has been rated a 3.50 out of 5 for accuracy. (4 votes)Sorry, but you must be logged in to rate this tab.
Click here to log-in, or you can click here to register.
(Registration is free)

All songs owned by corresponding publishing company. If you make copies of any song on this website, be sure to report your usage to CCLI.
Submitted by: Old Guy

=============================================================== 
Song: “Next Thing You Know” 
Artist: Matthew West: 
History © 2005 Word Music (ASCAP) 
===============================================================
Intro

E    ---------------------------------------------------
B   1-1-1-1-1p0-3-3-3-3-3\1-0h1-1-1-1-1p0---------------
G   2-2-2-2-2p0-3-3-3-3-3\2-0h2-2-2-2-2p0-3-------------
D   --------------------------------------3-----0-3-0---
A   -----------------------------------------3----------
E   ----------------------------------------------------

2nd guitar overlays F-C-Bb-C-F chords

Verse & Chorus:
 F-C-Bb-C-F-C-Bb chords followed by
     D ----0-3-0
     A---3--------

Bridge:

E   1--------3-1------3-1------3-
B    --1---------1--------1------
D   -----2-2-------2--------2----
A   -----------------------------
        
Repeat several times
2nd guitar overlays F-C-Bb-C-F chords

Outro:

Same as intro.  

Comments about this tab

GodisKing3 - 2005-11-13

I don't know a whole bunch of the chords like F and Bb so if you could tell me, what are the fingerings for F and Bb? Thanks!


GodisKing3 - 2005-11-13

Oh sorry my bad!! I found them in the chord encyclopedia...sorry bout that!


coolness - 2005-11-22

i think end of the intro is supposed to be 0-3-5


coolness - 2005-11-22

or 0-3/5 sound right too


juggernaut2437 - 2006-06-19

E 1--------3-1------3-1------3-
B --1---------1--------1------
D -----2-2-------2--------2----
A -----------------------------
?????

ok um.. thats confusing.. for the tuning is that really
"e B D A" without the "G" or
"e,B,G,D" or "B,G,D,A"... ??? which one?


Add a comment/correction

Complimentary Christian Ringtones
Dadamobile and CGR have teamed up to bring your favorite Christian artists right to your phone. Sign up today and get 10 complementary ringtones!
Tab Country
Did you know CGR has a sister site w/ country guitar tabs? Well we do! Its called Tab Country. It has a great archive with a lot of country tabs.
Rockin Tabs
Are you looking for a site that has rock guitar tabs? Then Rockintabs.com is the place for you. It is a budding site with many rock guitar tabs. Submit your tab today.
Tab Gallery
Tab Gallery has a compilation of christian, rock, and country tabs all in one place. Come visit us.