Guitar Tabs
song title    band name

Join Us Today!

Don't strum alone...
be a part of the largest online Christian music community. Browse thousands of guitar tabs and chat w/ musicians like yourself.


It's Free!

This tab has been rated a 2.00 out of 5 for accuracy. (6 votes)Sorry, but you must be logged in to rate this tab.
Click here to log-in, or you can click here to register.
(Registration is free)

All songs owned by corresponding publishing company. If you make copies of any song on this website, be sure to report your usage to CCLI.
Submitted by: Dark Tofu

Song: Aparitions Of Melody
Artist: Kids In The Way
Album: Aparitions Of Melody
Flicker Records


Intro and Interludes
Standard tuning
--------------------------------------------
--------------------------------------------
--------------------------------------------
--------------------------------------------
-4-4h7p4h7p4-4-4h7p4h7p4--------------------
-------------------------7-7h10p7h10p7-44-44

Comments about this tab

guitarequalsjoy - 2005-12-01

ummmm let's see

Standard Tuning
-----------------------------|
-----------------------------|
-----------------------------|
-----------------------------|
-4-4-h74h74-2-2-h52h52-------|
-----------------------22-22-|


guitarequalsjoy - 2005-12-01

diregard the last correction I forgot something =)

Standard tuning
----------------------------------------|
----------------------------------------|
----------------------------------------|
----------------------------------------|
-4-4-h74h74-4-4-h74h74-2-2-h52h52-------|
----------------------------------22-22-|

There we go


young_rocker_06 - 2006-02-19

What about the rest of the song? I found it in the other tabs but they are in drop D.


Jono91 - 2006-06-27

just play the (2)'s on the E string as (4)'s


Add a comment/correction

Complimentary Christian Ringtones
Dadamobile and CGR have teamed up to bring your favorite Christian artists right to your phone. Sign up today and get 10 complementary ringtones!
Tab Country
Did you know CGR has a sister site w/ country guitar tabs? Well we do! Its called Tab Country. It has a great archive with a lot of country tabs.
Rockin Tabs
Are you looking for a site that has rock guitar tabs? Then Rockintabs.com is the place for you. It is a budding site with many rock guitar tabs. Submit your tab today.
Tab Gallery
Tab Gallery has a compilation of christian, rock, and country tabs all in one place. Come visit us.