Guitar Tabs
song title    band name

Join Us Today!

Don't strum alone...
be a part of the largest online Christian music community. Browse thousands of guitar tabs and chat w/ musicians like yourself.


It's Free!

This tab has been rated a 5.00 out of 5 for accuracy. (2 votes)Sorry, but you must be logged in to rate this tab.
Click here to log-in, or you can click here to register.
(Registration is free)

All songs owned by corresponding publishing company. If you make copies of any song on this website, be sure to report your usage to CCLI.
Submitted by: Kutless Fan

Song: Crash
Artist: 12 Stones
Album: 12 Stones
Subimtted by: Kutless Fan

Gtrs. 1 & 3 tune down a whole step:
DGCFAD
Gtr. 2 in Drop D, down a whole step:
CGCFAD

Gtr. 1
Intro (clean):                                                    Riff 1
--------------------------------------------------------------------------
------------------------------------------------------------------------0-
-7------7------7----10------10------10-----9------9------9---5--------5-0-
----0-0---0-0----0-----0-0-----0-0-----0-----0-0----0-0---0---5---5-----(Repeat)
--------------------------------------------------------------------------
--------------------------------------------------------------------------

Verse (clean):
Rhy. Fig. 1 (6x)

Chorus (distorted):
D2        C5             F5
G5                    D2
           C5                        F5
G5                      D2
            C5               F5
                 G5                   D2
             C5                 F5
G5           F5  E5
(Repeat)

Repeat verse & chorus

Bridge (distorted):
D5                  F5 E5 D5 G5 F5 E5 F5
D5                          F5 E5 D5 G5 F5 E5 F5

D5                   F5 E5 D5 G5 F5 E5 F5
D5                            F5 E5 D5 G5
D5                      F5 E5 D5 G5 F5 E5 F5
D5               F5 E5 D5 G5 F5 E5 F5
D5               F5 E5 D5 G5 F5 E5 F5
D5                          F5 E5 D5 G5

Don’t play on solo

Repeat chorus

Gtr. 2
Intro:
Dm  G2  F2  (2x)

Verse (clean):
Dm    G2   F2
Dm               G2            F2
Dm      G2   F2
Dm                     G2 F2                       Dm
Dm   G2 F2                     Dm
Dm                   G2 F2

Chorus (distorted):                                                Riff 2
---0-0---------------------------------0-0-----------------------------------
---3-3---------------------------------3-3-----------------------------------
-2-2-2-------------------------------2-2-2-----------------------------------
-0-0-0-5-5-5-5-5-5-0-----------------0-0-0-5-5-5-5-5-5-0---------------------
-0-0---3-3-3-3-3-3-0--3-3-3-5-5-5-5--0-0---3-3-3-3-3-3-0--3-3-3-5-5-X-5-5-5--
-0-0------------------3-3-3-5-5-5-5--0-0------------------3-3-3-5-5-X-5-5-5--




---0-0---------------------------------0-0----------------------------------
---3-3---------------------------------3-3----------------------------------
-2-2-2-------------------------------2-2-2----------------------------------
-0-0-0-5-5-5-5-5-5-0-----------------0-0-0-5-5-5-5-5-5-0--------------------
-0-0---3-3-3-3-3-3-0--3-3-3-5-5-5-5--0-0---3-3-3-3-3-3-0--3-3-3-5-5-5-5-3-2-
-0-0------------------3-3-3-5-5-5-5--0-0------------------3-3-3-5-5-5-5-3-2-

Repeat verse

Repeat chorus

Bridge (distorted):
-------------------------------------------------------------
-------------------------------------------------------------
------------------------(3x)--------------------------
-0-0--0-0------------------------0-0--0-0--------5-
-0-0--0-0--3-2-0-5-3-2-3---------0-0--0-0--3-2-0-5-
-0-0--0-0--3-2-0-5-3-2-3---------0-0--0-0--3-2-0-5-
           P.M.----------|                 P.M.---|
(Repeat)

Solo:
Repeat riff 2 a couple times, then:
------------------------------------------
------------------------------------------
------------------------------------------
-3--3------------------------------------
-3--3-3-3-5-5-5-5-3-2-5-5-5-5-3-2-
-3--3-3-3-5-5-5-5-3-2-5-5-5-5-3-2-
        P.M.---------------------|

Repeat chorus

Gtr. 3
Intro (come in on second measure):
-----------------------------------------------------------------------
-----------------------------------------------------------------------
-------------------10h12p10-9h10--9-9-10p9-----------------------------
-10--12-10h12-----------------------------------10----------10------10-
---------------------------------------------------------10-12------12-
-----------------------------------------------------------------------
Verse (hold for 2 beats, then rest for the rest of the verse):
-----
-----
-----
-12-
-----
-----

Chorus (hold for 2 beats, then rest for the rest of the chorus):
-----
-----
-----
-12-
-----
-----

Repeat verse & chorus

Bridge:
----------------15-------------------------------------------------------------------------------
----------------18-------------------------------------------------------------------------10-12-
-5--5--5-----------5--5--5-------12h14p12p10-----------------10-----------------10-12------------
-------------------------------------------------------12-12-10h12-----12-12-12-12---------------
-3--3--3--0-0------3--3--3--0-0------------------------------------------------------------------
-------------------------------------------------------------------------------------------------

------------------------------------------------------------------------------13-----------------
-12-12------------------------10-----------------------13-10-13--15-13h15-15------15-15p13h15p13-
-12-12-12h14p12p10------10-------10h12-12/14-----------------------------------------------------
---------------------------12-------12-----------------------------------------------------------
-------------------------------------------------------------------------------------------------
-------------------------------------------------------------------------------------------------

--------------13---------13-----13---------12-15-15-15-15—15h17p15p13-----13-13-13----------------
-----13-15------15-15-----15-----15-15----------------------------------------15--------------13h15p13---
-14-----------------------------------------------------------------------------------------------------------------
---------------------------------------------------------------------------------------------------------------------
---------------------------------------------------------------------------------------------------------------------
---------------------------------------------------------------------------------------------------------------------

-------------13---------13-----13---------12-15h17-15h17-15h17-15h17—15h17p15p13----13-13-13
----13-15------15-15-----15-----15-15----------------------------------------------------------15------------
14------------------------------------------------------------------------------------------------------------------
---------------------------------------------------------------------------------------------------------------------
---------------------------------------------------------------------------------------------------------------------
---------------------------------------------------------------------------------------------------------------------
--------------------------13----------10---------------------------------------------------------------------------
-13h15p13-----13-15-----15-15------12h13p12p10----10--------------------------------------------------
--------------14--------------------------12h14p12p10----10-----10-12h14p12p10-----10-----------------
------------------------------------------------------------12----12-----------------------12-----12-10---------
-------------------------------------------------------------------------------------------------------------12-10-
---------------------------------------------------------------------------------------------------------------------

---------------------------------------------------------------------------------------------------------------------
-----------------------------------------------------------------------------------------------------------13-------
---------------------------------------------12h14p12p10------10—12h14p12p12-----10-12/14-----14---
---------------------------------10-----10-------------------12-------------------------12-----------------------
-8--------------8-----8-10/12-----12----------------------------------------------------------------------------
----10-10-10----10-----------------------------------------------------------------------------------------------

-----------------------------------------------------------------
-15p13h15p13-10-13-10------12h13-12-10-12-10-10--
-------------------------------12-12h14--12-10-12-10-10-
-----------------------------------------------------------------
-----------------------------------------------------------------
-----------------------------------------------------------------

Repeat chorus

This is the tab as it appears in the official songbook, so I'm not taking any credit for it.
If you have any questions or comments email me at forhim78@sbcglobal.net.  Peace out.

Comments about this tab

12UpodKutOath K - 2006-04-07

Why are there no string names on the last like 20 lines?


Kutless Fan - 2007-01-25

12UpodKutOath K, I didn't put string names on the bridge because I didn't change the order from top to bottom. But in case anyone is wondering what that order is, exactly, here it is. From bottom to top, the strings are E, A, D, G, B, high E. Sorry about that.

In Christ,
Matt


Add a comment/correction

Complimentary Christian Ringtones
Dadamobile and CGR have teamed up to bring your favorite Christian artists right to your phone. Sign up today and get 10 complementary ringtones!
Tab Country
Did you know CGR has a sister site w/ country guitar tabs? Well we do! Its called Tab Country. It has a great archive with a lot of country tabs.
Rockin Tabs
Are you looking for a site that has rock guitar tabs? Then Rockintabs.com is the place for you. It is a budding site with many rock guitar tabs. Submit your tab today.
Tab Gallery
Tab Gallery has a compilation of christian, rock, and country tabs all in one place. Come visit us.