Guitar Tabs
song title    band name

Join Us Today!

Don't strum alone...
be a part of the largest online Christian music community. Browse thousands of guitar tabs and chat w/ musicians like yourself.


It's Free!

This tab has been rated a 2.80 out of 5 for accuracy. (5 votes)Sorry, but you must be logged in to rate this tab.
Click here to log-in, or you can click here to register.
(Registration is free)

All songs owned by corresponding publishing company. If you make copies of any song on this website, be sure to report your usage to CCLI.
Submitted by: zaccy

Artist: United Live
Title: What The World Will Never Take
Album: Look To You

I've decided to put my own tab up because the others are incorrect. 
I've changed the key in afew parts and added my own in that I think 
sounds correct.

Tuning: E (E,A,D,G,B,e)

Guitar I (Electric Lead)
Guitar II (Electric Rhythm)
Guitar III (Acoustic) - See bottom of page

Tablature Legend:

PM  - palm mute
h   - hammer-on
p   - pull-off
b   - bend
r   - release bend
~   - vibrato
/\  - slide into or out to 'no where'
s   - legato slide
S   - shift slide
< > - Harmonic
t   - tap
TP  - tremolo picking
x   - muted slash

4/4

Rhy Fig.1a

 Guitar I
|--------------------------------------|--------------------------------------|
|--------------------------------------|--------------------------------------|
|--------------------------------------|--------------------------------------|
|-----7-x-6-x-6-6h7------7-x-6-x-6-6h7-|-0-0-7-x-6-x-6-6h7--0-0-7-x-6-x-6-6h7-|
|-0-0----------------0-0---------------|--------------------------------------|
|--------------------------------------|--------------------------------------|

Rhy Fig.1b

 Guitar II (Joins in after Guitar I plays Rhy Fig.1 through once.)
|--------------------------------------|--------------------------------------|
|--------------------------------------|--------------------------------------|
|--------------------------------------|-7-7----------------7-7---------------|
|-7-7----------------7-7---------------|-7-7----------------7-7---------------|
|-7-7----------------7-7---------------|-5-5----------------5-5---------------|
|-5-5----------------5-5---------------|--------------------------------------|


Rhy Fig.2a

 Guitar I
|-------------------------|---------------------------|
|-------------------------|---------------------------|
|-6-6-4-6-6-4-6-6-4-6-6-4-|-6-6-4-6-6-4-6-6-4-6-6-6---|
|-------------------------|-------------------------7-|
|-------------------------|-------------------------7-|
|-------------------------|-------------------------5-|


Rhy Fig.2b

  Guitar II
|---------------------------|-------------------------------|
|---------------------------|-------------------------------|
|-7-7-7-------------------4-|-7-7-7-------------------------|
|-7-7-7-------4-4---------4-|-7-7-7---7-7-7-7-----9-9-----7-|
|-5-5-5-------4-4---------2-|-5-5-5---7-7-7-7-----9-9-----7-|
|-------------2-2-----------|---------5-5-5-5-----7-7-----5-|


Rhy Fig.3

 Guitar I & II
|-------------------|--------|
|-------------------|--------|
|-------------------|------7-|
|-7-7-7-7-7-7-7-7-7-|-7----7-|
|-7-7-7-7-7-7-7-7-7-|-7----5-|
|-5-5-5-5-5-5-5-5-5-|-5------|

|----------------------|---------------|
|----------------------|---------------|
|-7-7-7-11-11-11-11-xx-|-4-4-4-4-7-7-7-|
|-7-7-7-11-11-11-11-xx-|-4-4-4-4-7-7-7-|
|-5-5-5-9--9--9--9--xx-|-2-2-2-2-5-5-5-|
|----------------------|---------------|

|-------------------|------------------------------------|
|-------------------|------------------------------------|
|-------------------|-11--11--11--11-xx--4--4-xx-7-7-7---|
|-7-7-7-7-7-7-7-7-7-|-11--11--11--11-xx--4--4-xx-7-7-7-7-|
|-7-7-7-7-7-7-7-7-7-|-9---9---9---9--xx--2--2-xx-5-5-5-7-|
|-5-5-5-5-5-5-5-5-5-|----------------------------------5-|

========================================================================================================
Just before the 2nd verse the Guitar does this when finishing on the A powerchord.
Guitar I plays the 'A' note 3 times with the bass drum and jumps straight into the verse.

Guitar I
|-------------------|-------------------|
|-------------------|-------------------|
|-------------------|-11--11--11--11-xx-|
|-7-7-7-7-7-7-7-7-7-|-11--11--11--11-xx-|
|-7-7-7-7-7-7-7-7-7-|-9---9---9---9--xx-|
|-5-5-5-5-5-5-5-5-5-|-------------------|

|------------------------------------------------------|
|------------------------------------------------------|
|-4--4-xx-7-7-7----------------------------------------|
|-4--4-xx-7-7-7-------7-x-6-x-6-6h7------7-x-6-x-6-6h7-|
|-2--2-xx-5-5-5---------------------0-0----------------|
|---------------5-5-5----------------------------------|


Rhy Fig.1a

 Guitar I
|--------------------------------------|--------------------------------------|
|--------------------------------------|--------------------------------------|
|--------------------------------------|--------------------------------------|
|-----7-x-6-x-6-6h7------7-x-6-x-6-6h7-|-0-0-7-x-6-x-6-6h7--0-0-7-x-6-x-6-6h7-|
|-0-0----------------0-0---------------|--------------------------------------|
|--------------------------------------|--------------------------------------|

Rhy Fig.1b

 Guitar II (Joins in after Guitar I plays Rhy Fig.1 through once.)
|--------------------------------------|--------------------------------------|
|--------------------------------------|--------------------------------------|
|--------------------------------------|-7-7----------------7-7---------------|
|-7-7----------------7-7---------------|-7-7----------------7-7---------------|
|-7-7----------------7-7---------------|-5-5----------------5-5---------------|
|-5-5----------------5-5---------------|--------------------------------------|


Rhy Fig.2a

 Guitar I
|-------------------------|---------------------------|
|-------------------------|---------------------------|
|-6-6-4-6-6-4-6-6-4-6-6-4-|-6-6-4-6-6-4-6-6-4-6-6-6---|
|-------------------------|-------------------------7-|
|-------------------------|-------------------------7-|
|-------------------------|-------------------------5-|


Rhy Fig.2b

  Guitar II
|---------------------------|-------------------------------|
|---------------------------|-------------------------------|
|-7-7-7-------------------4-|-7-7-7-------------------------|
|-7-7-7-------4-4---------4-|-7-7-7---7-7-7-7-----9-9-----7-|
|-5-5-5-------4-4---------2-|-5-5-5---7-7-7-7-----9-9-----7-|
|-------------2-2-----------|---------5-5-5-5-----7-7-----5-|


Rhy Fig.3

 Guitar I & II
|-------------------|--------|
|-------------------|--------|
|-------------------|------7-|
|-7-7-7-7-7-7-7-7-7-|-7----7-|
|-7-7-7-7-7-7-7-7-7-|-7----5-|
|-5-5-5-5-5-5-5-5-5-|-5------|

|----------------------|---------------|
|----------------------|---------------|
|-7-7-7-11-11-11-11-xx-|-4-4-4-4-7-7-7-|
|-7-7-7-11-11-11-11-xx-|-4-4-4-4-7-7-7-|
|-5-5-5-9--9--9--9--xx-|-2-2-2-2-5-5-5-|
|----------------------|---------------|

|-------------------|------------------------------------|
|-------------------|------------------------------------|
|-------------------|-11--11--11--11-xx--4--4-xx-7-7-7---|
|-7-7-7-7-7-7-7-7-7-|-11--11--11--11-xx--4--4-xx-7-7-7-7-|
|-7-7-7-7-7-7-7-7-7-|-9---9---9---9--xx--2--2-xx-5-5-5-7-|
|-5-5-5-5-5-5-5-5-5-|----------------------------------5-|

(Guitar I doesn't finish up on the 'A' note 
with the bass drum this time)

Rhy Fig.4

 Guitar I (Come in after the bass riff [4 counts])
|--------------------------------------------------|
|-------10-------10----10-------10-12-12b14r12-10\-|
|-11-11----11-11----11----10-10------------------\-|
|------------------------------------------------\-|
|--------------------------------------------------|
|--------------------------------------------------|

|-----------------------------------|
|-----------------------------------|
|-----6-----6-----------8-----8---8-|
|-7-7---7-7---7-7-7S9-9---9-9---9---|
|-----------------------------------|
|-----------------------------------|

|--------------------------------------------------|
|-------10-------10----10-------10-12-12b14r12-10\-|
|-11-11----11-11----11----10-10------------------\-|
|------------------------------------------------\-|
|--------------------------------------------------|
|--------------------------------------------------|

|---------------------------------|
|---------------------------------|
|-----6-----6-----------8-------8-|
|-7-7---7-7---7-7-7S9-9---9-9-9---|
|---------------------------------|
|---------------------------------|

|----------------------------------------------------|
|----------------------------------------------------|
|---8-----8-----8---8-----8-----8---8-----8-----8----|
|-9---9-9---9-9---9---9-9---9-9---9---9-9---9-9---7\-|
|-------------------------------------------------7\-|
|-------------------------------------------------5\-|

(Guitar II comes in after the first time through)
===========================================================
For Rhythm Figure 4, you can use a scream (pinch harmonic) 
for the bend on the 12th fret. It works really well.
|----------------------------------------------------|
|-------10-------10----10-------10-12-<12b14r12>-10\-|
|-11-11----11-11----11----10-10--------------------\-|
|--------------------------------------------------\-|
|----------------------------------------------------|
|----------------------------------------------------|
====================================================================

Rhy Fig.3

 Guitar I & II
|-------------------|--------|
|-------------------|--------|
|-------------------|------7-|
|-7-7-7-7-7-7-7-7-7-|-7----7-|
|-7-7-7-7-7-7-7-7-7-|-7----5-|
|-5-5-5-5-5-5-5-5-5-|-5------|

|----------------------|---------------|
|----------------------|---------------|
|-7-7-7-11-11-11-11-xx-|-4-4-4-4-7-7-7-|
|-7-7-7-11-11-11-11-xx-|-4-4-4-4-7-7-7-|
|-5-5-5-9--9--9--9--xx-|-2-2-2-2-5-5-5-|
|----------------------|---------------|

|-------------------|------------------------------------|
|-------------------|------------------------------------|
|-------------------|-11--11--11--11-xx--4--4-xx-7-7-7---|
|-7-7-7-7-7-7-7-7-7-|-11--11--11--11-xx--4--4-xx-7-7-7-7-|
|-7-7-7-7-7-7-7-7-7-|-9---9---9---9--xx--2--2-xx-5-5-5-7-|
|-5-5-5-5-5-5-5-5-5-|----------------------------------5-|

Rhy Fig.5

|---------------------------------|
|---------------------------------|
|-------------------------7-7-7---|
|-7-7-7-7-7-7-7-7-7-7-7-7-7-7-7-7-|
|-7-7-7-7-7-7-7-7-7-7-7-7-5-5-5-7-|
|-5-5-5-5-5-5-5-5-5-5-5-5-------5-|
===========================================================
Song Structure:

Guitar I

Rhy Fig.1a x4
Rhy Fig.2a x1
Rhy Fig.3  x1
Rhy Fig.1a x3
Rhy Fig.2a x1
Rhy Fig.3  x2
Rhy Fig.4  x2
Rhy Fig.3  x2
Rhy Fig.5  x2

Guitar II

Rhy Fig.1b x4
Rhy Fig.2b x1
Rhy Fig.3  x1
Rhy Fig.1b x3
Rhy Fig.2b x1
Rhy Fig.3  x2
Rhy Fig.4  x1 (after Guitar I plays through Rhy Fig.4 once)
Rhy Fig.3  x2
Rhy Fig.5  x2

Acoustic Guitar - The acoustic guitar plays with the 
rhythm except for Rhy Fig.4. The chords are:

Rhy Fig.2b - A D
Rhy Fig.3  - A D F#m B D A
             A F#m B D A
Rhy Fig.2b - A D
Rhy Fig.3  - A D F#m B D A
	     A F#m B D A
Rhy Fig.4  - (Pause)
Rhy Fig.3  - A D F#m B D A
	     A F#m B D A
Rhy Fig.5  - A D

Have fun with your praise and worship or just spare time! 
I'll get more tabs up soon.

- Zac

Comments about this tab

supaduk - 2005-08-26

I myself wouldn't play with that tab, but for a beginner I'd say it's pretty good - keep it up!


guitar4godjosh - 2005-09-05

ALL MOST THERE


clewis - 2006-01-21

good tab but wheres the solo
--------5------5---5---------5-7-7b---
--7-7-----7-7----7---6-6-6--------------
------------------------
------------------
---------------------------
---------------------------


Add a comment/correction

Complimentary Christian Ringtones
Dadamobile and CGR have teamed up to bring your favorite Christian artists right to your phone. Sign up today and get 10 complementary ringtones!
Tab Country
Did you know CGR has a sister site w/ country guitar tabs? Well we do! Its called Tab Country. It has a great archive with a lot of country tabs.
Rockin Tabs
Are you looking for a site that has rock guitar tabs? Then Rockintabs.com is the place for you. It is a budding site with many rock guitar tabs. Submit your tab today.
Tab Gallery
Tab Gallery has a compilation of christian, rock, and country tabs all in one place. Come visit us.