Guitar Tabs
song title    band name

Join Us Today!

Don't strum alone...
be a part of the largest online Christian music community. Browse thousands of guitar tabs and chat w/ musicians like yourself.


It's Free!

This tab has been rated a 5.00 out of 5 for accuracy. (3 votes)Sorry, but you must be logged in to rate this tab.
Click here to log-in, or you can click here to register.
(Registration is free)

All songs owned by corresponding publishing company. If you make copies of any song on this website, be sure to report your usage to CCLI.
Submitted by: Dark Tofu

Artist: Pillar
Album: Where Do We Go From Here
Song: Let It Out 
Record Company: Flicker Records

I redid this song for those who asked someone to make a new tab
this is what i make of the song add any corrections you have

Verse 1 
Guitar 1 (clean, tremelo) 
D|----------|-------|--------|-----------|----------|-------|--------|--------|
A|----------|-------|--------|-----------|----------|-------|--------|--------|
F|----------|-------|--------|-----------|----------|-------|--------|-11-----| 2x
C|-7--------|-4-----|-7------|-4----6----|-7--------|-4-----|-11-----|-9------|
G|-4--------|-0-----|-4------|-0----2----|-4--------|-0-----|-9------|-9------|
C|-4--------|-0-----|-4------|-0----2----|-4--------|-0-----|-9------|--------|
On second time
Guitar 2 (clean)                                      (now with distortion)
D|----------|-------|--------|-----------|----------|-------|--------|--------|
A|----------|-------|--------|-----------|----------|-------|--------|--------|
F|-9s11-----|--9h11-|--------|-----------|----------|-------|--------|--------|
C|----------|-------|-9s11---|-----------|----------|-------|--------|--------|
G|----------|-------|--------|-----------|----------|-------|--------|---16s4-|
C|----------|-------|--------|-----------|----------|-------|--------|---16s4-|

Chorus 1
Guitar 2
D|------------------------|-----------------------------|----------------------|
A|------------------------|-----------------------------|----------------------|
F|------------------------|------------------6----------|----------------------|
C|-4-2-4--x-4--4-2-4--x-4-|------------------6----------|-4-2-4-x-4--4-2-4-x-4-|
G|-4-2-4--x-4--4-2-4--x-4-|-0-0-0--4b5r4-----4----4b5r4-|-4-2-4-x-4--4-2-4-x-4-|
C|-4-2-4--x-4--4-2-4--x-4-|-0-0-0--------0-0---0--------|-4-2-4-x-4--4-2-4-x-4-|
                            *****        ***   * 
D|--------------2--2-2-2----|------------------------| ------------------------|
A|--------------5--5-5-5----|------------------------|-------------------------|
F|--------------4--4-4-4----|------------------------|-----------------6-9-9-9-|
C|-7-7-7-9--9-9-2--2-2-2--0-|-4-2-4--x-4--4-2-4--x-4-|-----------------6-9-9-9-|
G|-7-7-7-9--9-9-2--2-2-2--0-|-4-2-4--x-4--4-2-4--x-4-|-0-0-0--4b5r4----4-7-7-7-|
C|-7-7-7-9--9-9-2--2-2-2--0-|-4-2-4--x-4--4-2-4--x-4-|-0-0-0-------0-0--0------|
   ************                                        *****        ***   *
D|------------------------------------|-------------------------|
A|------------------------------------|-------------------------|
F|-9-9-9-9--x-9-x-x--9-9-9-9--x-9-x-x-|-------------------------|
C|-7-7-7-7--x-7-x-x--7-7-7-7--x-7-x-x-|----------------4--------|
G|-7-7-7-7--x-7-x-x--7-7-7-7--x-7-x-x-|------9---------0----0-2-|
C|-7-7-7-7--x-7-x-x--7-7-7-7--x-7-x-x-|-9h11 --11-9h11-0----0-2-|
                                                            *
Interlude
Guitar 1
D|----------------|-------------|-----------------|-----------|
A|----------------|-------------|-----------------|-----------|
F|----------------|-------------|-----------------|-----------|
C|-7--------------|-4-----------|-7---------------|-4----6----|
G|-4--------------|-0-----------|-4---------------|-0----2----|
C|-4--------------|-0-----------|-4---------------|-0----2----|

Guitar 2 (clean)
D|----------------|-------------|-----------------|-----------|
A|----------------|-------------|-----------------|-----------|
F|-9s11------9h11-|-------------|-----9------9----|-----------|
C|----------------|-9s11--------|--7-----7-6----6-|-2s4--4s6--|
G|----------------|-------------|-----------------|-----------|
C|----------------|-------------|-----------------|-----------|

Verse 2
Guitar 1
D|---------|-------|--------|-----------|----------|-------|--------|--------|
A|---------|-------|--------|-----------|----------|-------|--------|--------|
F|---------|-------|--------|-----------|----------|-------|--------|--------|
C|-7-------|-4-----|-7------|-4----6----|-7--------|-4-----|-11-----|-11-----|
G|-4-------|-0-----|-4------|-0----2----|-4--------|-0-----|-9------|-7------|
C|-4-------|-0-----|-4------|-0----2----|-4--------|-0-----|-9------|-7------|

Guitar 2                                                (now distorted)
D|---------|-------|--------|-----------|----------|-------|--------|--------|
A|---------|-------|--------|-----------|----------|-------|--------|--------|
F|---------|-------|--------|-----------|----------|-------|--------|--------|
C|---------|-------|--------|-----------|----------|-------|--------|--------|
G|---------|-------|--------|-----------|----------|-------|--------|---16s4-|
C|-6s7-----|-------|--------|-----------|----------|-------|--------|---16s4-|

Chorus 2
Guitar 2
D|------------------------|-----------------------------|----------------------|
A|------------------------|-----------------------------|----------------------|
F|------------------------|------------------6----------|----------------------|
C|-4-2-4--x-4--4-2-4--x-4-|------------------6----------|-4-2-4--x-4-4-2-4-x-4-|
G|-4-2-4--x-4--4-2-4--x-4-|-0-0-0--4b5r4-----4----4b5r4-|-4-2-4--x-4-4-2-4-x-4-|
C|-4-2-4--x-4--4-2-4--x-4-|-0-0-0--------0-0---0--------|-4-2-4--x-4-4-2-4-x-4-|
                            *****        ***   *
D|--------------2--2-2-2----|------------------------| ------------------------|
A|--------------5--5-5-5----|------------------------|-------------------------|
F|--------------4--4-4-4----|------------------------|-----------------6-9-9-9-|
C|-7-7-7-9--9-9-2--2-2-2--0-|-4-2-4--x-4--4-2-4--x-4-|-----------------6-9-9-9-|
G|-7-7-7-9--9-9-2--2-2-2--0-|-4-2-4--x-4--4-2-4--x-4-|-0-0-0--4b5r4----4-7-7-7-|
C|-7-7-7-9--9-9-2--2-2-2--0-|-4-2-4--x-4--4-2-4--x-4-|-0-0-0-------0-0--0------|
   ************                                        *****        ***   *
D|------------------------------------|------------------|
A|------------------------------------|------------------|
F|-9-9-9-9--x-9-x-x--9-9-9-9--x-9-x-x-|------------------|
C|-7-7-7-7--x-7-x-x--7-7-7-7--x-7-x-x-|----------------4-|
G|-7-7-7-7--x-7-x-x--7-7-7-7--x-7-x-x-|------9---------0-|
C|-7-7-7-7--x-7-x-x--7-7-7-7--x-7-x-x-|-9h11 --11-9h11-0-|

Bridge pt. 1
Guitar 2 
D|----------------------------|----------------------------|----------------
A|----------------------------|----------------------------|----------------
F|----------------------------|----------------------------|----------------
C|--------------4---------4-4-|--------------4---------4-4-|--------------6-
G|--------------0---------0-0-|--------------0---------2-2-|--------------7-
C|-0-0-0-0--0-0----0-0-0------|-0-0-0-0--0-0----0-0-0--2-2-|-4-4-4-4--4-4---
   ************    *****        ************    *****        ************
D-------------|----------------------------|----------------------------|
A-------------|----------------------------|----------------------------|
F-------------|----------------------------|----------------------------|
C---------6-6-|--------------6---------4-4-|--------------4---------4-4-|
G---------7-7-|--------------7---------2-2-|--------------0---------0-0-|
C--4-4-4------|-4-4-4-4--4-4----4-4-4--2-2-|-0-0-0-0--0-0----0-0-0------|
   *****        ************    *****        ************    *****
D|----------------------------|----------------------------|------------------
A|----------------------------|----------------------------|------------------
F|----------------------------|----------------------------|------------------
C|--------------4---------4-4-|--------------6---------6-6-|----------6-6-6-6-
G|--------------0---------2-2-|--------------7---------7-7-|----------7-7-7-7-
C|-0-0-0-0--0-0----0-0-0--2-2-|-4-4-4-4--4-4----4-4-4------|-4-4-4-4--4-4-4-4-
   ************    *****        ************    *****        *******
D-------------------|
A-------------------|
F-------------------|
C--6-6-6-6--4-4-4-4-|
G--7-7-7-7--2-2-2-2-|
C--4-4-4-4--2-2-2-2-|

Bridge pt. 2
Guitar 1 (now with distortion)
D|------------------------------|-------------------------------|---------------
A|------------------------------|-------------------------------|---------------
F|------------------------------|-------------------------------|---------------
C|-4-4-4-4---4-4--4-4---4-4-4-4-|-4-4-4-4---4-4--4-4-4--6-6-6-6-|-7-7-7-7---7-7-
G|-0-0-0-0---0-0--0-0---0-0-0-0-|-0-0-0-0---0-0--0-0-0--2-2-2-2-|-4-4-4-4---4-4-
C|-0-0-0-0---0-0--0-0---0-0-0-0-|-0-0-0-0---0-0--0-0-0--2-2-2-2-|-4-4-4-4---4-4-

D----------------|----------------------------------|-----------------------
A----------------|----------------------------------|-----------------------
F----------------|----------------------------------|-----------------------
C--7-7---7-7-7-7-|-7-7-7-7--7-7-7--7-7-7-7--6-6-6-6-|-4-4-4-4--4-4-4--4-4-4-
G--4-4---4-4-4-4-|-4-4-4-4--4-4-4--4-4-4-4--2-2-2-2-|-0-0-0-0--0-0-0--0-0-0-
C--4-4---4-4-4-4-|-4-4-4-4--4-4-4--4-4-4-4--2-2-2-2-|-0-0-0-0--0-0-0--0-0-0-

D----------|-------------------------------|--------------------------------|
A----------|-------------------------------|--------------------------------|
F----------|-------------------------------|--------------------------------|
C--4-4-4-4-|-4-4-4-4---4-4--4-4-4--6-6-6-6-|-7-7-7-7--7-7-7--7-7-7--7-7-7-7-|
G--0-0-0-0-|-0-0-0-0---0-0--0-0-0--2-2-2-2-|-4-4-4-4--4-4-4--4-4-4--4-4-4-4-|
C--0-0-0-0-|-0-0-0-0---0-0--0-0-0--2-2-2-2-|-4-4-4-4--4-4-4--4-4-4--4-4-4-4-|

D|---------------------------|
A|---------------------------|
F|---------------------------|
C|-7-7-7-7--7-7-7-7--7-7-7-7-|
G|-4-4-4-4--4-4-4-4--4-4-4-4-|
C|-4-4-4-4--4-4-4-4--4-4-4-4-|

Chorus 3
Guitars 1 and 2
D|------------------------|------------------------------|------------
A|------------------------|------------------------------|------------
F|------------------------|-------------------6----------|------------
C|-4-2-4--x-4--4-2-4--x-4-|-------------------6----------|-4-2-4--x-4-
G|-4-2-4--x-4--4-2-4--x-4-|-0-0-0--4b5r4------4----4b5r4-|-4-2-4--x-4-
C|-4-2-4--x-4--4-2-4--x-4-|-0-0-0---------0-0---0--------|-4-2-4--x-4-
                            *****         ***   *
D-------------|--------------2--2-2-2----|------------------------|
A-------------|--------------5--5-5-5----|------------------------|
F-------------|--------------4--4-4-4----|------------------------|
C--4-2-4--x-4-|-7-7-7-9--9-9-2--2-2-2--0-|-4-2-4--x-4--4-2-4--x-4-|
G--4-2-4--x-4-|-7-7-7-9--9-9-2--2-2-2--0-|-4-2-4--x-4--4-2-4--x-4-|
C--4-2-4--x-4-|-7-7-7-9--9-9-2--2-2-2--0-|-4-2-4--x-4--4-2-4--x-4-|
                ************
D|-------------------------------|------------------------------------|
A|-------------------------------|------------------------------------|
F|-------------------6-----9-9-9-|-9-9-9-9--x-9-x-x--9-9-9-9--x-9-x-x-|
C|-------------------6-----9-9-9-|-7-7-7-7--x-7-x-x--7-7-7-7--x-7-x-x-|
G|-0-0-0--4r5r4------4-----7-7-7-|-7-7-7-7--x-7-x-x--7-7-7-7--x-7-x-x-|
C|-0-0-0---------0-0---0---------|-7-7-7-7--x-7-x-x--7-7-7-7--x-7-x-x-|
   *****         ***   *
D|--------------------------------|----------------------------------
A|--------------------------------|----------------------------------
F|--------7-7-7-7---------9-9-9-9-|--------11-11-11----11s13-13-13---
C|-0-0-0--7-7-7-7--0-0-0--9-9-9-9-|-0-0-0--11-11-11--0-11s13-13-13---
G|-0-0-0--5-5-5-5--0-0-0--7-7-7-7-|-0-0-0---9--9--9--0--9s11-11-11---
C|-0-0-0-----------0-0-0----------|-0-0-0-----------0--0----0--0--0--

D--------------|
A--------------|
F--13-13-13-13-|
C--13-13-13-13-|
G--11-11-11-11-|
C---0--0--0--0-|

Outro
Guitars 1 and 2
D|------------------------|--------------------------|
A|------------------------|--------------------------|
F|------------------------|--------------------------|
C|-7-7-7--x-7--7-7-7--x-7-|-7-7-7--x-7--7-7-7-7--x-6-|
G|-4-4-4--x-4--4-4-4--x-4-|-4-4-4--x-4--4-4-4-4--x-2-|
C|-4-4-4--x-4--4-4-4--x-4-|-4-4-4--x-4--4-4-4-4--x-2-|

D|------------------------|--------------------------|
A|------------------------|--------------------------|
F|------------------------|--------------------------|
C|-7-7-7--x-7--7-7-7--x-7-|-7-7-7--x-7--7-7-7-7--x-6-|
G|-4-4-4--x-4--4-4-4--x-4-|-4-4-4--x-4--4-4-4-4--x-2-|
C|-4-4-4--x-4--4-4-4--x-4-|-4-4-4--x-4--4-4-4-4--x-2-|

D|----------------------------|----------------------------|----------|
A|----------------------------|----------------------------|----------|
F|----------------------------|----------------------------|----------|
C|-7-7-7--x-7-7--7-7-7--x-7-7-|-7-7-7--x-7-x--7-7-7-7--x-6-|-4--------|
G|-4-4-4--x-4-4--4-4-4--x-4-4-|-4-4-4--x-4-x--4-4-4-4--x-2-|-0--------|
C|-4-4-4--x-4-4--4-4-4--x-4-4-|-4-4-4--x-4-x--4-4-4-4--x-2-|-0--------|

God Bless,
Dark Tofu

Comments about this tab

bseg - 2005-07-08

Emjoyed it! This is a great song, the two tabs for it on this site are great as well. Thanks for sharing


Jimbo12 - 2005-07-20

Uh, dude, exactly why did you pretty much just copy the tab I did from the book and make a few changes so it made it look like you didn't? I know I was wrong to do it from the book, but still. I can totally tell this was taken from the one I did.


Dark Tofu - 2005-08-01

Oh no, I didn't think about that, but i didn't use your book tab. Seriously, I tabbed it out and posted. Whether you believe me or not.


Jimbo12 - 2005-09-09

All right man, it's not so much that the actual tab is so similar to mine, it's just you wrote it out like, exactly the same way i wrote mine out. Lol, no worries. Peace.
Dave


TG-da-JF - 2005-11-06

How can Pillar have two guitars? They dont have cloned Noah Henson did they?


Dark Tofu - 2005-12-28

Do you realize that in a recording studio they can do multiple tracks of a single guitar?


TG-da-JF - 2006-01-23

just was that lil bit more of a noob in that time... still am tho... a smarter noob than before :D


cody horne - 2006-04-29

lol


aarrowh - 2007-02-19

acually it says on the CD case that some guy will step in as 2nd guitar somtimes..lol..srry I don't know the guys name, but w/e


Add a comment/correction

Complimentary Christian Ringtones
Dadamobile and CGR have teamed up to bring your favorite Christian artists right to your phone. Sign up today and get 10 complementary ringtones!
Tab Country
Did you know CGR has a sister site w/ country guitar tabs? Well we do! Its called Tab Country. It has a great archive with a lot of country tabs.
Rockin Tabs
Are you looking for a site that has rock guitar tabs? Then Rockintabs.com is the place for you. It is a budding site with many rock guitar tabs. Submit your tab today.
Tab Gallery
Tab Gallery has a compilation of christian, rock, and country tabs all in one place. Come visit us.