Guitar Tabs
song title    band name

Join Us Today!

Don't strum alone...
be a part of the largest online Christian music community. Browse thousands of guitar tabs and chat w/ musicians like yourself.


It's Free!

This tab has been rated a 5.00 out of 5 for accuracy. (2 votes)Sorry, but you must be logged in to rate this tab.
Click here to log-in, or you can click here to register.
(Registration is free)

All songs owned by corresponding publishing company. If you make copies of any song on this website, be sure to report your usage to CCLI.
Submitted by: dnob23

Artist: Mat Kearney
Song: Memorial Stones
Album: West In November

Standard Tuning

This song is off of one of Mat's older EPs. I think it can also be downloaded
if you sign up for his e-mail newsletter.

Chord Progression:

e-x-x-x-x
B-x-x-x-x
G-7-6-4-2
D-0-0-0-0
A-x-x-x-x
E-7-5-3-2

I won't tab out the whole song, because it pretty much repeats over and over,
but there are a couple of variations.

Intro:

e------------------------------------------------------------------------
B------------------------------------------------------------------------
G--------7----------6-------4---2--------------7-----------6-----4---6---
D-----0----0-----0----0-----0------0--------0-----0-----0-----0----------
A------------------------------------------------------------------------
E--7----------5----------3------2-----2--7-----------5-----------3---5---

Main Verse:

e-------------------------------------------
B-------------------------------------------
G-----7--------6--------4--------2----------
D--------0--------0--------0--------0------- (start from beginning, but without
A-------------------------------------------  the first note)
E--7--7-----5--5-----3--3-----2--2-----2/7--

Verse(The end to this is a little different)

e------------------------------------------
B------------------------------------------
G-----7--------6--------4-----2---4--6--7--
D--------0--------0--------0---------------
A------------------------------------------
E--7--7-----5--5-----3--3-----2---3--5--7--

The ending to this verse is thrown in a couple of times for a little variation

Chorus:

Same as the initial verse I showed, just without the slide

Well, there it is. I hope I was clear. Once you have the notes, you should be
able to figure out all of the little stuff. Any suggestions or questions are
more than welcome.

God Bless,
Danny


Comments about this tab

Mandi9 - 2006-03-25

hey i love it! Great job! I have written out most of the lyrics for it, but do you know of anywhere else that has the lyrics


Harns1985 - 2006-04-12

Does anyone know the correct chords for Chicago (acoustic)?


Add a comment/correction

Complimentary Christian Ringtones
Dadamobile and CGR have teamed up to bring your favorite Christian artists right to your phone. Sign up today and get 10 complementary ringtones!
Tab Country
Did you know CGR has a sister site w/ country guitar tabs? Well we do! Its called Tab Country. It has a great archive with a lot of country tabs.
Rockin Tabs
Are you looking for a site that has rock guitar tabs? Then Rockintabs.com is the place for you. It is a budding site with many rock guitar tabs. Submit your tab today.
Tab Gallery
Tab Gallery has a compilation of christian, rock, and country tabs all in one place. Come visit us.