Guitar Tabs
song title    band name

Join Us Today!

Don't strum alone...
be a part of the largest online Christian music community. Browse thousands of guitar tabs and chat w/ musicians like yourself.


It's Free!

This tab has been rated a 5.00 out of 5 for accuracy. (3 votes)Sorry, but you must be logged in to rate this tab.
Click here to log-in, or you can click here to register.
(Registration is free)

All songs owned by corresponding publishing company. If you make copies of any song on this website, be sure to report your usage to CCLI.
Submitted by: philliptune

You Were There - Avalon 

This was originally played on keyboard so it's just my interpretation of the CD
version using guitar. I capo’d the first fret and played it in D. Uncapo’d, it
is in the key of Eb, which is high for the guys to sing - near the end - so I’ve
tried to transpose it to an Ab (with second fret capo’d, it’s played as a G) but
it gets a little difficult to play. E-mail me at phillip@ptaurora.com to get the
transposed version or to get the chords with lyrics.

Chord Chart (listed in order of appearance in the song):
    D   Bm  G  Asus A   E   Em Gbm  Dm  Bb  F   Am  C   Gm Csus4 C3 Dm3
e-|-2-|-2-|-3-|-0-|-0-|-0-|-0-|-2-|-1-|-1-|-1-|-0-|-0-|-3-|--3-|-3-|-5-|
b-|-3-|-3-|-3-|-3-|-2-|-0-|-0-|-2-|-3-|-3-|-1-|-1-|-1-|-3-|--1-|-5-|-6-|
g-|-2-|-4-|-0-|-2-|-2-|-1-|-0-|-2-|-2-|-3-|-2-|-2-|-0-|-3-|--0-|-5-|-7-|
d-|-0-|-4-|-0-|-2-|-2-|-2-|-2-|-4-|-0-|-3-|-3-|-2-|-2-|-5-|--2-|-5-|-7-|
a-|---|-2-|-2-|-0-|-0-|-2-|-2-|-4-|---|-1-|-3-|-0-|-3-|-5-|--3-|-3-|-5-|
e-|---|---|-3-|---|-0-|-0-|-0-|-2-|---|---|-1-|---|---|-3-|----|---|---|

Symbol Key:
 “-(chord)”=2nd beat, “/(key)”=bass note, “()”=optional chord

Capo 1st Fret
Intro:
   D        D        Bm       Bm        D         D         Bm        Bm
E-|----5-3/2----5-3/2----5-3/2----5-3/2/2---5-3/2/2---5-3/2/2---5-3/2/2-
B-|3--------3---------------------------3---------3---------3---------3-
G-|------------------4--------4---------2---------2---------4---------4-
D-|-------------------------------------0---------0---------4---------4-
A-|---------------------------------------------------------2---------2-
E-|---------------------------------------------------------------------

            D
E-|--5-3/2/2-2-2-2-
B-|--------3-3-3-3-
G-|--------2-2-2-2-
D-|--------0-0-0-0-
A-|----------------
E-|----------------

V1:     Bm       G        D
        Bm       G        Asus     A  -Asus/D
        Bm       E/G#     A  -/G   D/Gb
        Em       /Gb-/G   A/D      Asus

C1:     G        D        A/E      D
        G        D        A           -/Gb
        G        D        Gbm/Bb   Bm -A
        E/G#              G        A  -Asus
        (D)/D

        G/D-A/Db Bm       G-A

V2:     Bm       G        D
        Bm       G        Asus     A  -Asus/D
        Bm       E/G#     A  -/G   D/Gb
        Em       /Gb-/G   A/D      Asus

C2:     G        D        A/E      D
        G        D        A           -/Gb
        G        D        Gbm/Bb   Bm -A
        E/G#              G        A  -Asus

        Dm       Bb       F        Am
B1:     Dm       Bb       F        Am
        Dm       Bb       F        Am
        Dm       Bb       A/Db

V3:     Dm       Bb       F/C      (C)/F-/E
        Dm       Bb       C(F)     (C)
        Dm       G        C  -/Bb  Am
        Gm -/A  /Bb       Csus4

C3:     Bb       F        C(Gm)/G  F
        Bb       F        Csus4

B2:     Bb       C3       Dm3      C3/E-(Am)
        Bb       C3       Dm3      C3/E-(Am)
        Bb       C3       Dm3      C3/E-Am
        Bb       C3       Dm3      C3/E

End:    Bb       F/A      C3

Comments about this tab

No comments/corrections found. Add your own

Complimentary Christian Ringtones
Dadamobile and CGR have teamed up to bring your favorite Christian artists right to your phone. Sign up today and get 10 complementary ringtones!
Tab Country
Did you know CGR has a sister site w/ country guitar tabs? Well we do! Its called Tab Country. It has a great archive with a lot of country tabs.
Rockin Tabs
Are you looking for a site that has rock guitar tabs? Then Rockintabs.com is the place for you. It is a budding site with many rock guitar tabs. Submit your tab today.
Tab Gallery
Tab Gallery has a compilation of christian, rock, and country tabs all in one place. Come visit us.