Guitar Tabs
song title    band name

Join Us Today!

Don't strum alone...
be a part of the largest online Christian music community. Browse thousands of guitar tabs and chat w/ musicians like yourself.


It's Free!

This tab has not yet been rated for accuracy.Sorry, but you must be logged in to rate this tab.
Click here to log-in, or you can click here to register.
(Registration is free)

All songs owned by corresponding publishing company. If you make copies of any song on this website, be sure to report your usage to CCLI.
Submitted by: mallad

Song: Brotherhood
Artist: Flatfoot 56
Tabbed by: Daniel Fouts

Hey guys I know there are plenty of you out there that love Flatfoot, and there aren't enough tabs for them out!  (none that I've found anyways)
They're an awesome christian celtic punk band out of Chi-town, and they're just great guys if you ever have a chance to meet them!  

ok the guitar starts at 13 seconds in the song, it's obvious because drums and
everything else starts then too!

just strum up-down regularly, I only say this cuz I know a lot of people
play power chords and strum down only...


Play Order_______
Intro (bagpipes only)
riff 1
riff 2
riff 1 x4
riff 2
riff 1 x2
riff 3 x6 (they don't start yelling "oi!" til the 3rd time)
riff 1 x3
riff 4




Standard Tuning...
* = Let Ring
riff 1
e|----------|---------|---------|---------|---------|---------|--------------|
B|----------|---------|---------|---------|---------|---------|--------------|
G|----------|---------|-8-8-8-8-|-8-8-8-8-|---------|---------|-8-10---------|
D|--8-8-8-8-|-8-8-8-8-|-8-8-8-8-|-8-8-8-8-|-8-8-8-8-|-8-8-8-8-|-8-10--8-8-8--|
A|--8-8-8-8-|-8-8-8-8-|-6-6-6-6-|-6-6-6-6-|-8-8-8-8-|-8-8-8-8-|-6--8--8-8-8--|
E|--6-6-6-6-|-6-6-6-6-|---------|---------|-6-6-6-6-|-6-6-6-6-|-------6-6-6--|

riff 2
e|----------|---------|---------|---------|---------|---------|--------------|
B|----------|---------|---------|---------|---------|---------|--------------|
G|----------|---------|-8-------|---------|---------|---------|-8-10---------|
D|-8--------|---------|-8-*-----|---------|-8-------|---------|-8-10--8-8-8--|
A|-8-*------|---------|-6-------|---------|-8-*-----|---------|-6--8--8-8-8--|
E|-6--------|---------|---------|---------|-6-------|---------|-------6-6-6--|

riff 3 (this strums a tiny bit slower,listen to the song to get it down right)
e|----------|---------|---------|---------|---------|
B|----------|---------|---------|---------|---------|
D|----------|---------|---------|---------|---------|
G|-8-8-8-8--|-8-8-----|--"oi!"--|-6-6-6-6-|-6-6-6-6-|
A|-8-8-8-8--|-8-8-----|---------|-6-6-6-6-|-6-6-6-6-|
E|-6-6-6-6--|-6-6-----|---------|-4-4-4-4-|-4-4-4-4-|

riff 4 (ending)
e|----------|----------|----------|----------|---------|
B|----------|----------|----------|----------|---------|
D|-8-10-----|-8-10-----|-8-10-----|-8-10-----|---------|
G|-8-10-8-8-|-8-10-8-8-|-8-10-8-8-|-8-10-8-8-|-8-------|
A|-6--8-8-8-|-6--8-8-8-|-6--8-8-8-|-6--8-8-8-|-8-*-----|
E|------6-6-|------6-6-|------6-6-|----6-6-6-|-6-------|

Rawk on !

Comments about this tab

Synner4given - 2010-04-18

After watching Tobin play this a dozen times I say U r spot on.


Add a comment/correction

Complimentary Christian Ringtones
Dadamobile and CGR have teamed up to bring your favorite Christian artists right to your phone. Sign up today and get 10 complementary ringtones!
Tab Country
Did you know CGR has a sister site w/ country guitar tabs? Well we do! Its called Tab Country. It has a great archive with a lot of country tabs.
Rockin Tabs
Are you looking for a site that has rock guitar tabs? Then Rockintabs.com is the place for you. It is a budding site with many rock guitar tabs. Submit your tab today.
Tab Gallery
Tab Gallery has a compilation of christian, rock, and country tabs all in one place. Come visit us.