Guitar Tabs
song title    band name

Join Us Today!

Don't strum alone...
be a part of the largest online Christian music community. Browse thousands of guitar tabs and chat w/ musicians like yourself.


It's Free!

This tab has been rated a 4.00 out of 5 for accuracy. (2 votes)Sorry, but you must be logged in to rate this tab.
Click here to log-in, or you can click here to register.
(Registration is free)

All songs owned by corresponding publishing company. If you make copies of any song on this website, be sure to report your usage to CCLI.
Submitted by: sXcountry

No One Really Wins
Copeland

This song is awesome!!

Tuned to dropped D


Intro and Verse
B]------------------------------|8-12-12--12-12-12-10|(2X)--[
G]----------------------------------------------------------[
D]----------------------------------------------------------[
A]-----|--------9-10-12-12-12|(2X)--------------------------[ 
D]-7/9-|9999999--------------|------------------------------[

Chorus 1
no guitar

Verse 2
same as first

Chorus 2

   I'm not sure, but it's something around 
the 13th through 15th fret on the B string

B]-15--15--15-15-15-15-:-15--15--x-14-x-14-[ 4X

on 4th time, play:   ]-17-17-17-17-[   instead of:   ]x-14-x-14-[.
-play twice
-then play the part before the : 

Solo
D]----------------------------------------------[
A]---------14-12-10-9\7-975779-9-7-9757-7h9p7p5-[
D]-9-11-12--------------------------------------[

Solo Continued
D]-------------12-14-16p14-16-14-12-14-14-16-16p14-16-14-12-14-14b-[
A]----------14-----------------------------------------------------[
D]-7-9-11-12-------------------------------------------------------[

Bridge
e]------[
B]------[
G]-9--7-[  listen to the song for the rhythm. these are just the chords
D]-9--7-[
A]-7--5-[
D]------[

Pre Chorus
e]---------[
B]---------[
G]-5--7--9-[  
D]-5--7--9-[
A]-3--5--7-[
D]---------[
Final Chorus

play around with the 12th 14th and 16th frets on the higher D string

Comments about this tab

sXcountry - 2005-06-30

small update to the tab...
Chorus 2

B]-15--15--15-15-15-15--15--15--x-14-x-14-[ 4X
G]-12--12--12-12-12-12--12--12--x-12-x-12-[

on 4th time, play: ]-17-17-17-17-[ instead of: ]-x-14-x-14-[.
]-12-12-12-12-[ ]-x-12-x-12-[
-play twice


sXcountry - 2005-06-30

yea, i figured those 12s wouldn't line up, but theyre supposed to go under the other two parts above them


Add a comment/correction

Complimentary Christian Ringtones
Dadamobile and CGR have teamed up to bring your favorite Christian artists right to your phone. Sign up today and get 10 complementary ringtones!
Tab Country
Did you know CGR has a sister site w/ country guitar tabs? Well we do! Its called Tab Country. It has a great archive with a lot of country tabs.
Rockin Tabs
Are you looking for a site that has rock guitar tabs? Then Rockintabs.com is the place for you. It is a budding site with many rock guitar tabs. Submit your tab today.
Tab Gallery
Tab Gallery has a compilation of christian, rock, and country tabs all in one place. Come visit us.