Guitar Tabs
song title    band name

Join Us Today!

Don't strum alone...
be a part of the largest online Christian music community. Browse thousands of guitar tabs and chat w/ musicians like yourself.


It's Free!

This tab has been rated a 4.00 out of 5 for accuracy. (2 votes)Sorry, but you must be logged in to rate this tab.
Click here to log-in, or you can click here to register.
(Registration is free)

All songs owned by corresponding publishing company. If you make copies of any song on this website, be sure to report your usage to CCLI.
Submitted by: xijsix

All to thee
Artist: BDA
Album: Better days ahead
2004 creative trust workshop

I have been playing guitar for less than a year and although this tab(and 
my skill) is horrible, i wanted to put this tab up so ppl can correct me. 
im missing most of the chorus and the second half of the song.
hopefully someone can help me with it.
it was very difficult tabbing it in detail from ear =/. 
comments are appreciated 


VERSE

e------------------------0-----------------------------3-
b-----3----0-----0h1-1-------3-----3---3-------3---------
g-2----------0-----------------0-------------0---0---0---
d---0---0------0-------2---2-----2---0-----2-------2-----
a-0--------2---------3-------2-----------3---------------
E--------------------------------------------------------

  D2       G         C       Em          C2

PRE-CHORUS


e---------------------------------------------------
b---------1---------3-----3-----3-----3--------------
g-------0---------0-----0-----0-----0----------------
d-----2---------4-----4-----4-----4------------------
a---3---------5--------------------------------------
E-3-------------------------------------------------

  C         D/A

e---------------------------------------
b---------1---------5-3-----5s7---------
g-------0---------0-----0---------------
d-----2---------4---------4-------------
a---3---------5-------------------------
E-3-------------------------------------

  C          ?=its D/A except with the pinky on the 5th fret of the b string

CHORUS

e---------3---3-2-----2h3-------------
b-----------3-----3-------------------
g-----0-------------0-----------------
d---2---2-----------------------------
a-3-----------------------------------
E-------------------------------------

  C2

e---------3---3-2-----2h3-------------
b-----------3-----3-------------------
g-------------------0-----------------
d-----0-------------------------------
a---2---2-----------------------------
E-3-----------------------------------

  G

RIFF

guitar 1 plays chorus

guitar 2 -

e-------------------------------------------------
b-------------------------------------------------
g----------12-12s16------------12-12s16-----------
d-10-10s12----------9h10-10s12--------------------
a-------------------------------------------------
E-------------------------------------------------

e-------------------------------------------------
b-------------------------------------------------
g-12---------------12-12s16-16s17~----------------
d----12-9h10-10s12--------------------------------
a-------------------------------------------------
E-------------------------------------------------


d-------------------------------------------------
b-------------------------------------------------
g------------12-12s16-12--------------------------
d-9h10-10s12-------------12-12s14-14-14s16-14-12--
a-------------------------------------------------
E-------------------------------------------------


e-------------------------------------------------
b----------------12-15-12-12h13p12-------13~------
g-12----12-12s14-------------------14-12----------
d----12-------------------------------------------
a-------------------------------------------------
E-------------------------------------------------


e-------------------------------------------------
b-13-12-----------------------------and then some-
g-------12-12s7-5-4-9-7-----7-4-----crazy hammer--
d-----------------------5h7---------ons i can't---
a-----------------------------------figure out----
E-------------------------------------------------


e----------------------14-15-15s17-15-------------
b-------------12-13-15----------------------------
g-12-16s14-12-------------------------------------
d-------------------------------------------------
a-------------------------------------------------
E-------------------------------------------------

the second half starting with jesus i dont know but this is a great song

Comments about this tab

mmggppmgp - 2005-07-10

it is not bad at all...


mmggppmgp - 2005-07-10

lol ive been playin longer... man u r sooo much better at ear playin for figuring even just that part of the song... i will try to figure rest... dont put yourself down, ur doin it for the lord... im strugglin with the same stuff dude...


mmggppmgp - 2005-07-11

ok soo... here it is... (missing part of chorus)
--------------------------1st time around--2nd time around
e-----3------2----------[---------------]-[3~]
B----3------3-----3-----[---3-----------]-[3~]
G---0-----2------0--4h5-[--0--4h5p4s2p0-]-[0~]
D--2-----0-0----0-------[-0-------------]-[0~]
A-3---------------------[---------------]-[2~]
E--------------3--------[3--------------]-[3~]
---C2-----D-----G--------------------------G--
(its basically arpegio-i added the important notes so yah if im missing sum jus mess with it its ez meaning listen for the timing on when the chords are played and then pick the chords... listen and i hope u get it)

hope it helps.. GOD BLESS


mmggppmgp - 2005-07-28



for the crazy hammer on and pull of on the bridge

wut i do is from the 4th fret to like the 12th fret
of the G string... i like tremolo pick it while sliding
--****-
G-4/12-
Key=/slide
---****-tremolo pick

work with it


3JCs - 2005-08-05

Have you thought about tab'g Love is Here?


chickachonk - 2005-12-27

hey guys
i think ive got the intro figured out, but please correct me if im wrong.

e-------------------------0--------------------3--
b------3---0----0h1-1-1-------3---3---3-----3-----
g--2-----2-----------------------0---0---0----0---
d--0-------0---0--------2---2---4---2---2----2----
a---------------------0-------3-------------------
e----2-----3--3-----------------------------------

thanks, and God bless
(i love this song!)


Add a comment/correction

Complimentary Christian Ringtones
Dadamobile and CGR have teamed up to bring your favorite Christian artists right to your phone. Sign up today and get 10 complementary ringtones!
Tab Country
Did you know CGR has a sister site w/ country guitar tabs? Well we do! Its called Tab Country. It has a great archive with a lot of country tabs.
Rockin Tabs
Are you looking for a site that has rock guitar tabs? Then Rockintabs.com is the place for you. It is a budding site with many rock guitar tabs. Submit your tab today.
Tab Gallery
Tab Gallery has a compilation of christian, rock, and country tabs all in one place. Come visit us.