Guitar Tabs
song title    band name

Join Us Today!

Don't strum alone...
be a part of the largest online Christian music community. Browse thousands of guitar tabs and chat w/ musicians like yourself.


It's Free!

This tab has not yet been rated for accuracy.Sorry, but you must be logged in to rate this tab.
Click here to log-in, or you can click here to register.
(Registration is free)

All songs owned by corresponding publishing company. If you make copies of any song on this website, be sure to report your usage to CCLI.
Submitted by: Highfive1177

  Here is my interpretation of the song Run by the awesome band Kutless...Hope
   you enjoy.
  
        The song is in Drop D tuning

       opening chorus  (different from the other choruses) 
  
                CaddD      G7      D
                       
                  3        3       2
                  3        0       3
                  0        0       2
                  2        x       0
                  3        x       0
                  x        x       x

       Intro (Listen to CD for timing)

        
        Em             C                     D
    e ------------/--------------/------------------------------/
    b -----0------/--------------/------------------------------/
    g -------0----/--------0-----/-------------0-----------0----/
    d --2------2--/---- 2-----2--/---------4-----4-------4---4--/
    a -----------0/--3----------3/------5-------------5--------5/
    d ------------/--------------/---0-------------0------------/


          Em             C                     D
    e ------------/---------------/------------------//
    b -----0------/---------------/------------------//
    g -------0----/--------0------/------------0-----//
    d --2------2--/---- 2-----2---/---------4----4---//
    a -----------0/--3-----------3/------5-----------//
    d ------------/---------------/---0-------------0//

      Verse and Pre-Chorus

         Em          C               D
    e ------------/--------------/-----------------------------------/
    b -----0------/--------------/--------------------------3--------/
    g -------0----/--------0-----/------------0----------0-----0-----/
    d --2------2--/---- 2-----2--/---------4-----4----4----------4---/
    a -----------0/--3----------3/------5---------------------------5/
    d ------------/--------------/---0--------------0----------------/

         Em           C              D
    e ------------/-----------/------------------------------//
    b -----0------/-----------/---------------3-----3--------//
    g -------0----/------0----/-------- 0-------0------0-----// 3X
    d --2------2--/---2----2- /------4----4-------4------4---//
    a -----------0/-3--------3/----5------------------------5//
    d ------------/-----------/--0----------0----------------//

         Chorus (Listen to CD for timing and number of strums each chord gets)

           C        G           D
    e ---------/-----------/----------//
    b ---------/-----------/----------//
    g ---------/-----------/----------// 2X
    d --- 8----/----5-----/-----0-----//
    a --- 8----/----5-----/-----0-----//
    d ----8---/-----5-----/-----0-----//

         Back To Intro
         Verse
         Chorus

 Hope you all enjoy this..any questions or comments please email me..
      Kleptocoolness@yahoo.com
                PEACE

Comments about this tab

KutlessRocks842 - 2005-08-23

on the chorus C should be played -10- -8-
-10- not -8-
-10- -8-


Add a comment/correction

Complimentary Christian Ringtones
Dadamobile and CGR have teamed up to bring your favorite Christian artists right to your phone. Sign up today and get 10 complementary ringtones!
Tab Country
Did you know CGR has a sister site w/ country guitar tabs? Well we do! Its called Tab Country. It has a great archive with a lot of country tabs.
Rockin Tabs
Are you looking for a site that has rock guitar tabs? Then Rockintabs.com is the place for you. It is a budding site with many rock guitar tabs. Submit your tab today.
Tab Gallery
Tab Gallery has a compilation of christian, rock, and country tabs all in one place. Come visit us.