Guitar Tabs
song title    band name

Join Us Today!

Don't strum alone...
be a part of the largest online Christian music community. Browse thousands of guitar tabs and chat w/ musicians like yourself.


It's Free!

This tab has been rated a 4.44 out of 5 for accuracy. (9 votes)Sorry, but you must be logged in to rate this tab.
Click here to log-in, or you can click here to register.
(Registration is free)

All songs owned by corresponding publishing company. If you make copies of any song on this website, be sure to report your usage to CCLI.
Submitted by: IncuThrice07

-------------------------------------------------------------------------------
                YOUR GRACE IS ENOUGH - Chris Tomlin
-------------------------------------------------------------------------------

By:  Gary(garyhale@spu.edu)

~   - let ring out
/ \ - slide
x
x   - scratching
x
11x
 x  - mute after strumming
 9x


GUITAR 1'S PARTS:  CAPO 2!!!
----------------------------
Chords Used:
   G   B/G  Csus2  Em7   D    D/F#   Am7
e|-3----3----3------3----2------------0----|
B|-3----3----3------3----3-----3------1----|
G|-0----0----0------0----2-----2------0----|
D|-0----0----2------2----0-----0------2----|
A|-x----2----3------2----------x------0----|
E|-3----------------0----------2-----------|

Intro:  G - B/G - Csus2

Verse 1:
G - B/G - Csus2
Em7 - D - Csus2
G - B/G - Csus2
Em7 - B/G - Csus2

Pre Chorus:
Am7 - B/G
Csus2 - D
Em7 - D/F# - Csus2

Chorus:
G - D
Em7 - Csus2
G - D - Csus2

Verse 2:
G - B/G - Csus2
Em7 - D - Csus2
G - B/G - Csus2
Em7 - D - Csus2

Repeat Pre Chorus

Repeat Chorus:  (2x)

Repeat Pre Chorus

Repeat Chorus:  (1st time no singing)

G - D
Em7 - Csus2
G - D - Csus2
G - D
Em7 - Csus2
G - D - Csus2 - G

Outro:  (Repeat Intro 2x)

GUITAR 2'S PARTS:  NO CAPO!!!
-----------------------------
Intro:
e|---------------------------------------------------------------------------|
B|---------------------------------------------------------------------------|
G|14-14-14-16-13-14-16-13--14-14-14--14-13-11-9--14-13-14/18-18-18-----------|
D|-x--x--x--x--x--x--x--x---x--x--x---x--x--x-x---x--x--x--x--x--x-----------|
A|12-12-12-14-11-12-14-11--12-12-12--12-11--9-7--12-11-12/16-16-16-----------|
E|---------------------------------------------------------------------------|

Intro Cont'd:
e|---------------------------------------------------------------------------|
B|---------------------------------------------------------------------------|
G|14-14-14-16-13-14-16-13--14-14-14--18-18-18-18-18-16-16-16-18-18-18-18-18--|
D|-x--x--x--x--x--x--x--x---x--x--x---x--x--x--x--x--x--x--x--x--x--x--x--x--|
A|12-12-12-14-11-12-14-11--12-12-12--16-16-16-16-16-14-14-14-16-16-16-16-16--|
E|---------------------------------------------------------------------------|

Intro Cont'd:
e|---------------|
B|---------------|
G|16-16-16-14~---|
D|-x--x--x--x----|
A|14-14-14-12~---|
E|---------------|

Verse 1:
e|---------------------------------------------------------------------------|
B|----------------------7-9-10----------7-9-10---------7-9-10----------------|
G|-----9---9-------------------9~--------------9~-------------9~-------------|
D|-------7---7~-------7------------------------------------------------------|
A|---------------------------------------------------------------------------|
E|---------------------------------------------------------------------------|

Pre Chorus:  (Play chords)

End of Pre Chorus:
e|---------------------------------------------------------------------------|
B|---------------------------------------------------------------------------|
G|-x-x-11-11-x-x-x-x-13-13-x-x-x-x-14-14-x-x-16-16-16-16---------------------|
D|-x-x--x--x-x-x-x-x--x--x-x-x-x-x--x--x-x-x--x--x--x--x---------------------|
A|-x-x--9--9-x-x-x-x-11-11-x-x-x-x-12-12-x-x-14-14-14-14---------------------|
E|---------------------------------------------------------------------------|

Chorus:
e|---------------------------------------------------------------------------|
B|---------------------------------------------------------------------------|
G|14-14-14-14-14-14-14-14-16-16-16-16-16-14-13-14----------------------------|
D|-x--x--x--x--x--x--x--x--x--x--x--x--x--x--x--x----------------------------|
A|12-12-12-12-12-12-12-12-14-14-14-14-14-12-11-12----------------------------|
E|---------------------------------------------------------------------------|

Chorus Cont'd:
e|---------------------------------------------------------------------------|
B|---------------------------------------------------------------------------|
G|14-14-14-14-14-14-14-14-18-18-18-18-18-16-16-16----------------------------|
D|-x--x--x--x--x--x--x--x--x--x--x--x--x--x--x--x----------------------------|
A|12-12-12-12-12-12-12-12-16-16-16-16-16-14-14-14----------------------------|
E|---------------------------------------------------------------------------|

Chorus Cont'd:
e|---------------------------------------------------------------------------|
B|---------------------------------------------------------------------------|
G|14-14-14-14-14-14-14-14-16-16-16-16-16-14-13-14----------------------------|
D|-x--x--x--x--x--x--x--x--x--x--x--x--x--x--x--x----------------------------|
A|12-12-12-12-12-12-12-12-14-14-14-14-14-12-11-12----------------------------|
E|---------------------------------------------------------------------------|

Chorus Cont'd:
e|---------------------------------------------------------------------------|
B|---------------------------------------------------------------------------|
G|11-11-11-11-13-13-13-13-14-14-14-14-16-16-16-16----------------------------|
D|-x--x--x--x--x--x--x--x--x--x--x--x--x--x--x--x----------------------------|
A|-9--9--9--9-11-11-11-11-12-12-12-12-14-14-14-14----------------------------|
E|---------------------------------------------------------------------------|

Verse 2:
e|---------------------------------------------------------------------------|
B|---------------------------------------------------------------------------|
G|-----9---9---9~----/14-13--11--13-13\9-9~--------14-16-18-11~--------------|
D|-------7---7---------x--x---x---x--x-x-x----------x--x--x--x---------------|
A|-------------------/12-11---9--11-11\7-7~--------12-14-16--9~--------------|
E|---------------------------------------------------------------------------|

Verse 2 Cont'd:
e|----------------|
B|----------------|
G|-18-16-14-11x---|
D|--x--x--x--x----|
A|-16-14-12--9x---|
E|----------------|

Repeat Pre Chorus

Repeat Chorus:  (2x)

Pre Chorus:  (Repeat lots)
e|-12---------------------|
B|------9-10--------------|
G|----9-------------------|
D|------------------------|
A|------------------------|
E|------------------------|

Repeat Chorus:  (No singing, come in on last line)

Repeat Chorus:  (2x)

Outro:  (Repeat Intro)

I missed a little bit during the verses because there's a weird delay going on
and I don't really know how to tab that guy out.
===============================================================================

Comments about this tab

jkim519 - 2005-08-27

Actually it's not B/G it's G/B


doubtlessone - 2005-10-23

he's right
B/G would be more like 324400
it's G/B , X20033
B^ G^
let B fade ring then hear more of the G


jkim519 - 2006-08-09

I think the chorus might be a little off but everything else is pretty much awesome!!


frenchy1227 - 2007-08-13

well done! This tab is GREAT! especially the lead guitar, sounds exactly like the cd!


Add a comment/correction

Complimentary Christian Ringtones
Dadamobile and CGR have teamed up to bring your favorite Christian artists right to your phone. Sign up today and get 10 complementary ringtones!
Tab Country
Did you know CGR has a sister site w/ country guitar tabs? Well we do! Its called Tab Country. It has a great archive with a lot of country tabs.
Rockin Tabs
Are you looking for a site that has rock guitar tabs? Then Rockintabs.com is the place for you. It is a budding site with many rock guitar tabs. Submit your tab today.
Tab Gallery
Tab Gallery has a compilation of christian, rock, and country tabs all in one place. Come visit us.