Guitar Tabs
song title    band name

Join Us Today!

Don't strum alone...
be a part of the largest online Christian music community. Browse thousands of guitar tabs and chat w/ musicians like yourself.


It's Free!

This tab has been rated a 3.75 out of 5 for accuracy. (4 votes)Sorry, but you must be logged in to rate this tab.
Click here to log-in, or you can click here to register.
(Registration is free)

All songs owned by corresponding publishing company. If you make copies of any song on this website, be sure to report your usage to CCLI.
Submitted by: whatsmyageagain

Band: Stellar Kart
Song: Come Back Home
ALbum: All Gas No Brake

The song is not perfect but it's a good start. At least I tried to tab it!!!!

Intro Gtr.2 (You figure out strumming) 
   1st Time          2nd Time
E----------------]---------------------------
B----------------]---------------------------
G--6-------3-----]--6-------3-------6~-------
D--6---4---3---4-]--6---4---3---4---6~-------
A--4---4---1---4-]--4---4---1---4---4~-------
E------2-------2-]------2-------2------------

Intro Gtr.1
E--------------------------------------------
B-6-6-6-4-4-4-6-6-6-4-4-4-6-6-6-6-7-7-7-7----
G--------------------------------------------
D--------------------------------------------
A--------------------------------------------
E--------------------------------------------

E----------------------------------------------
B-6-6-6-7-7-7-6-6-6-7-7-7-7-6-6-6-4-4-4-6-6-6--
G----------------------------------------------
D----------------------------------------------
A----------------------------------------------
E----------------------------------------------

E----------------------------------------------
B--4-4-4-6-6-6-6-2-2-2-4-4-4-6-6-6-7-6-6-6-7(2nd Time end on 6~)
G----------------------------------------------
D----------------------------------------------2X
A----------------------------------------------
E----------------------------------------------

First Part of verse is bass then I'm not sure about this part maybe 
you can help out
Verse Palm Muted
E----------1---------------4------------
B--2---4-----2---2-2---4-----2---2------
G----1---1-----1-----1---1-----1--------
D---------------------------------------2X
A---------------------------------------
E---------------------------------------

Chours
E-----------------------------------------------------
B--4-4-2-2--------------------------------------------
G-----------6--------------6--8-------------------6~--
D-----------6--4--8--6--4--6--8--8--6--4--XXXXXX--6~--
A-----------4--4--8--6--4--4--6--8--6--4--XXXXXX--4~--
E--------------2--6--4--2--------6--4--2--XXXXXX------

SOLO
E-----------------------------------------------------------------
B-6-7-6-4-6-7-6-4-4----6-7-6-4-6-7---------6-7-6-4-6-7-6-4-4------
G--------------------6---------------------------------------6----
D-----------------------------------------------------------------
A-----------------------------------------------------------------
E-----------------------------------6-8-9-------------------------

E-----------------------------------------------------------------
B---------------------------------6-7-6-4-6-7-6-4-4----------------
G----------------------------------------------------6-------------
D------------------------------------------------------------------
A-4-4-4-6-6-6-8-8-8-9-9-8-8-9-9------------------------------------
E------------------------------------------------------------------

E------------------------------------------------------------------
B-------6-7-6-4-6-7-------------------------------------------------
G-------------------------------------------------------------------
D----------------------------------------4-4-4-3-3-3----------------
A--------------------1-1-1-3-3-3-4-4-4------------------6-6-6-------
E-------------------------------------------------------------------

E-------------------------------------------------------------------
B-------------------------------------------------------------------
G-------------------------------------------------------------------
D-------------------------------------------------------------------
A-4-4-4-6-6-4-4-4-4-4-4-6-6-6-8/9\8/9\8/9\8~------------------------
E-------------------------------------------------------------------

Bridge                  Dont Know this Part  
E--------------------[-------------------------
B--------------------[-------------------------
G-6-6--6-6--8-8--8-8-[--10---------------------
D-6-6--6-6--8-8--8-8-[--10-6--------------------
A-4-4--4-4--6-6--6-6-[--8--6--4-4-4-4-4----------
E--------------------[-----4--2-2-2-2-2----------

Order:
Intro
Verse
Chorus
Verse
Chorus
Solo
Bridge
Chorus

That's it....... Stellar Kart is a Awesome Band! One of my favorite 
alternatives from secular Punk/Rock
anyway please rate and leave comments, requests, praise, 
money, whatever you want at dcusa_2@yahoo.com

Comments about this tab

Down_In_Flames - 2005-06-23

sounds pretty good but the solo and the intro for guitar 2 is a little off. good job though. this song sounds hard 2 tab. good job.


champguitar84 - 2005-07-21

Yeah i agree but besides that you rock dude keep using your talents for God and thank you for the tab


Run =-C-C-> - 2008-01-01

Intro is all on A
A--8-8-8-6-6-6-8-8-8-6-6-6-8-8-8-8-9-9-9-8-8-8-9-9-9-8-8-8-9-9-9-9-8-8-8-6-6-6--

cont. -8-8-8-6-6-6-8-8-8-8-4-4-4-6-6-6-8-8-8-9-9-9-8-8-6-8
2nd time
A--8-8-8-6-6-6-8-8-8-6-6-6-8-8-8-8-9-9-9-8-8-8-9-9-9-8-8-8-9-9-9-9-8-8-8-6-6-6--

cont. -8-8-8-6-6-6-8-8-8-8-4-4-4-6-6-6-8-8-8-9-9-9-8-8-6/8-8 let ring
/ is a slide


Run =-C-C-> - 2008-01-01

Good, solid start for the tab. I'll work on the verse and the solo, but your chordings are really accurate. Keep up the good work.


Add a comment/correction

Complimentary Christian Ringtones
Dadamobile and CGR have teamed up to bring your favorite Christian artists right to your phone. Sign up today and get 10 complementary ringtones!
Tab Country
Did you know CGR has a sister site w/ country guitar tabs? Well we do! Its called Tab Country. It has a great archive with a lot of country tabs.
Rockin Tabs
Are you looking for a site that has rock guitar tabs? Then Rockintabs.com is the place for you. It is a budding site with many rock guitar tabs. Submit your tab today.
Tab Gallery
Tab Gallery has a compilation of christian, rock, and country tabs all in one place. Come visit us.