Guitar Tabs
song title    band name

Join Us Today!

Don't strum alone...
be a part of the largest online Christian music community. Browse thousands of guitar tabs and chat w/ musicians like yourself.


It's Free!

This tab has been rated a 2.00 out of 5 for accuracy. (1 vote)Sorry, but you must be logged in to rate this tab.
Click here to log-in, or you can click here to register.
(Registration is free)

All songs owned by corresponding publishing company. If you make copies of any song on this website, be sure to report your usage to CCLI.
Submitted by: jaguarfxf

Song: 80's Tune
Artist: Ever Stays Red

Regular Tuning

(Hear the song for how many times each chord is played)

Intro
Guitar 1
E
B
G-9-9---9-9-8-9--
D-x-x---x-x-x-x--X4
A-7-7---7-7-6-7--
E-


Guitar 2
E
B
G-9-9--9--9--11-11-9--9--7-7-9--9--14-14-7-7
D-x-x--x--x--x--x--x--x--x-x-x--x--x--x--x-x
A-7-7--11-11-13-13-11-11-9-9-11-11-16-16-9-9
E

E
B
G-9-9-9-9-9
D-9-9-9-9-9
A-7-7-7-7-7
E

Verse

Not sure excatly for verse but you can pick these two chords and it sounds ok

E
B
G-9----8
D-9----9
A-7----7
E

Toward the end of each verse a guitar comes in with this

E
B
G-9-9-9-
D-x-x-x--9
A-7-7-7--x
E--------7

Chorus
The chorus is basically 2 chords just play these 2 chords back and
forth you should hear it. Also the intro comes in now and then
during the entire song.

E
B
G-9-9-9-9--9--9-
D-x-x-x-x--x--x-
A-7-7-7-11-11-11
E

Solo

E---------
B-10-10-12-5-4-5-4--------------------5-4---5-7-9-10-7-9-5-4-5-4
G------------------4-2-1-2-1----1-2-4-----4----------------------4-2-1-2-1
D----------------------------2-2-------------------------------------------2
A---------
E---------

E----12----12----14----12----14----16
B-12-12-12-12-12-12-12-12-12-12-12-12
G
D
A
E

E
B-9h10-9h10-9h10-9h10-9h10-12-9-10-9-12-9-10-9-12
G
D
A
E

I know the solo isen't exact but it's close and could pass.

Guitar 2 Solo

E
B
G-7-7-9--9--11-11-9--9--7-7-9--9--11-11-14-14
D-x-x-x--x--x--x--x--x--x-x-x--x--x--x--x--x----X2 
A-9-9-11-11-13-13-11-11-9-9-11-11-13-13-16-16
E

Outro is close to intro but with only guitar 1.

I hope this satisfies most of you.  Please add corrections.
Rock out for Jesus!

Comments about this tab

jaguarfxf - 2005-06-27

Sorry I made a mistake.

The X's should not be there. For example

E
B
G-9 Should be played
D-x
A-7
E

E
B
G-9
D-7
A-7
E

So change that for all the chords


jaguarfxf - 2005-06-27

I also messed up on Guitar 2 solo

The lower numbers should be on the A string and the higher numbers on the G string


worldrocker77 - 2007-04-24

Hey. I just tabbed it and this is what I came up with.


DADGBE Tuning

(Intro)
E|-----------------------------------
B|-----------------------------------
G|-----------------------------------
D|14-14-14-14-14-14-13-14-9-9-9-9----(Repeat)
A|14-14-14-14-14-14-13-14-9-9-9-9----
D|14-14-14-14-14-14-13-14-9-9-9-9----



E|-----------------------------------
B|-----------------------------------
G|-----------------------------------
D|7-7-9-9-11-11-11-9-9-9-9-7-7-9-9-11
A|7-7-9-9-11-11-11-9-9-9-9-7-7-9-9-11
D|7-7-9-9-11-11-11-9-9-9-9-7-7-9-9-11



E|-----------------------------------
B|-----------------------------------
G|-----------------------------------
D|11-11-14-14-14-2-2-2-2-2-2-2-222-2-
A|11-11-14-14-14-2-2-2-2-2-2-2-222-2-
D|11-11-14-14-14-2-2-2-2-2-2-2-222-2-
P.M.-----------------


E|-----------------------------------
B|-----------------------------------
G|-----------------------------------
D|2-2-2-2-2-2-22-2-2-2-2-2-2-2-2-2-2-
A|2-2-2-2-2-2-22-2-2-2-2-2-2-2-2-2-2-
D|2-2-2-2-2-2-22-2-2-2-2-2-2-2-2-2-2-
P.M.-----------------------------


E|-----------------------------------
B|-----------------------------------
G|-----------------------------------
D|2-2-2-2----------------------------
A|2-2-2-2----------------------------
D|2-2-2-2----------------------------

(Verse)
E|-----------------------------------
B|-----------------------------------
G|-----------------------------------
D|7-7-7-7-7-7-7-7-7-7-7-7-7-2--------
A|7-7-7-7-7-7-7-7-7-7-7-7-7-2--------
D|7-7-7-7-7-7-7-7-7-7-7-7-7-2--------



E|-----------------------------------
B|-----------------------------------
G|-----------------------------------
D|7-7-7-7-7-7-7-7-7-7-7-7-7-2-2-2-2-2
A|7-7-7-7-7-7-7-7-7-7-7-7-7-2-2-2-2-2
D|7-7-7-7-7-7-7-7-7-7-7-7-7-2-2-2-2-2



E|-----------------------------------
B|-----------------------------------
G|-----------------------------------
D|2-2-2-2-2-2-2-2--------------------
A|2-2-2-2-2-2-2-2--------------------
D|2-2-2-2-2-2-2-2--------------------


(Chorus)
E|-----------------------------------
B|-----------------------------------
G|-----------------------------------
D|7-7-9-9-11-11-11-9-9-9-9-7-7-9-9-11
A|7-7-9-9-11-11-11-9-9-9-9-7-7-9-9-11
D|7-7-9-9-11-11-11-9-9-9-9-7-7-9-9-11


E|-----------------------------------
B|-----------------------------------
G|-----------------------------------
D|11-11-14-14-14-7-7-7-7-9-9-9-9-9-9-
A|11-11-14-14-14-7-7-7-7-9-9-9-9-9-9-
D|11-11-14-14-14-7-7-7-7-9-9-9-9-9-9-



E|-----------------------------------
B|-----------------------------------
G|-----------------------------------
D|7-7-7-7-9-9-9-9-9-9-7-7-7-7-9-9-9-9
A|7-7-7-7-9-9-9-9-9-9-7-7-7-7-9-9-9-9
D|7-7-7-7-9-9-9-9-9-9-7-7-7-7-9-9-9-9



E|-----------------------------------
B|-----------------------------------
G|-----------------------------------
D|9-9-9-7-7-7-7-9-9-9-9-9-9-7-7-9-9--
A|9-9-9-7-7-7-7-9-9-9-9-9-9-7-7-9-9--
D|9-9-9-7-7-7-7-9-9-9-9-9-9-7-7-9-9--



E|-----------------------------------
B|-----------------------------------
G|-----------------------------------
D|11-11-11-9-9-9-9-7-7-9-9-11-11-11--
A|11-11-11-9-9-9-9-7-7-9-9-11-11-11--
D|11-11-11-9-9-9-9-7-7-9-9-11-11-11--



E|-----------------------------------
B|-----------------------------------
G|-----------------------------------
D|14-14-14---------------------------
A|14-14-14---------------------------
D|14-14-14---------------------------

(Verse)
(Chorus)

(Bridge)
E|-----------------------------------
B|-----------------------------------
G|-----------------------------------
D|7---------9-----------7-----------9
A|7---------9-----------7-----------9
D|7---------9-----------7-----------9
Let it Ring------------------------


E|-----------------------------------
B|10-10-12-5-4-5-4-------------------
G|-----------------4-1-2-1-2---------
D|---------------------------2-2-2-1-
A|-----------------------------------
D|-----------------------------------



E|--------0-0------------------------
B|------------4-5-7-9-7-5-4-5-4-5-4--
G|4-2-1-2---------------------------4
D|-----------------------------------
A|-----------------------------------
D|-----------------------------------


E|----------0-7---7---7---7----------
B|--------------5---5---5---5-4-4-4--
G|2-1-2-1-4-------------------------4
D|-----------------------------------
A|-----------------------------------
D|-----------------------------------


E|-----------------------------------
B|--------------------0-----0-----0--
G|2-1-2-1-2-1------------------------
D|------------2-2-1-2---1-2---1-2---1
A|-----------------------------------
D|-----------------------------------



E|----------0-4-0-5-0-7-0-5-0-4-0-12-
B|--0-0------------------------------
G|------2-1--------------------------
D|2----------------------------------
A|-----------------------------------
D|-----------------------------------


E|12---------------------------------
B|-----------------------------------
G|-----------------------------------
D|---7-7-9-9-11-11-11-9-9-9-9-7-7-9-9
A|---7-7-9-9-11-11-11-9-9-9-9-7-7-9-9
D|---7-7-9-9-11-11-11-9-9-9-9-7-7-9-9



E|---------0-----------0-------------
B|-----------4-----------------------
G|-------------4-2-1-----------------
D|11-11-11-----------2---------------
A|11-11-11---------------------------
D|11-11-11---------------------------

(Chorus)

E|-----------------------------------
B|-----------------------------------
G|-----------------------------------
D|14-14-14-14-14-14-14-9-7-7-7-7----- (Repeat)
A|14-14-14-14-14-14-14-9-7-7-7-7-----
D|14-14-14-14-14-14-14-9-7-7-7-7-----


E|-----------------------------------
B|-----------------------------------
G|-----------------------------------
D|14-9-7-7-7-7-7-7------------------- (Repeat 2x)
A|14-9-7-7-7-7-7-7-------------------
D|14-9-7-7-7-7-7-7-------------------



E|-----------------------------------
B|-----------------------------------
G|-----------------------------------
D|14-9-7-77777777777777-2------------
A|14-9-7-77777777777777-2------------
D|14-9-7-77777777777777-2------------



Add a comment/correction

Complimentary Christian Ringtones
Dadamobile and CGR have teamed up to bring your favorite Christian artists right to your phone. Sign up today and get 10 complementary ringtones!
Tab Country
Did you know CGR has a sister site w/ country guitar tabs? Well we do! Its called Tab Country. It has a great archive with a lot of country tabs.
Rockin Tabs
Are you looking for a site that has rock guitar tabs? Then Rockintabs.com is the place for you. It is a budding site with many rock guitar tabs. Submit your tab today.
Tab Gallery
Tab Gallery has a compilation of christian, rock, and country tabs all in one place. Come visit us.