Guitar Tabs
song title    band name

Join Us Today!

Don't strum alone...
be a part of the largest online Christian music community. Browse thousands of guitar tabs and chat w/ musicians like yourself.


It's Free!

This tab has been rated a 4.40 out of 5 for accuracy. (5 votes)Sorry, but you must be logged in to rate this tab.
Click here to log-in, or you can click here to register.
(Registration is free)

All songs owned by corresponding publishing company. If you make copies of any song on this website, be sure to report your usage to CCLI.
Submitted by: joellaw44

Song: I Know
Artist: Seventh Day Slumber
Album: Picking Up the Pieces

As with a lot of my tabs, I did it on powertab first and just exported it to
text so it takes up a lot of space.  It should be pretty easy to figure
out from this, though.  The bends and stuff make the solo look sloppy, but
it's very accurate.

Standard Tuning

 Intro
|--------------------------------|---------------------|
|--------------------------------|---------------------|
|---------------7--7--7-----x--x-|-5-5-5-5-5-5-5-------|
|-2-2-2-2-2--x--7--7--7-----x--x-|-5-5-5-5-5-5-5-------|
|-2-2-2-2-2--x--5--5--5-----x--x-|-3-3-3-3-3-3-3-5--5--|
|-0-0-0-0-0--x-------------------|---------------3--2--|
|

|--------------------------------|---------------------|
|--------------------------------|---------------------|
|--------------11-11-11-12-12\---|-5-5-5-5-5-5-5-------|
|-2-2-2-2-2--x-------------------|-5-5-5-5-5-5-5-------|
|-2-2-2-2-2--x--9--9--9-10-10\---|-3-3-3-3-3-3-3-5--5--|
|-0-0-0-0-0--x-------------------|---------------3--2--|


 
|---------------------------------|-----------------------------------|
|-----0---1p0---0-----0---1p0---0-|-------0---1p0---0-----0---1p0---0-|
|---0---0-----0-----0---0-----0---|-----0---0-----0-----0---0-----0---|
|---------------------------------|-----------------------------------|
|---------------------------------|-----------------------------------|
|-0---------------0---------------|--0----------------0---------------|
|
|
|---------------------------------|-----------------------------------|
|---------------------------------|-----------------------------------|
|---------------------------------|-----------------------------------|
|-2-------------------------------|-(2)-------------------------------|
|-2-------------------------------|-(2)-------------------------------|
|-0-------------------------------|-(0)-------------------------------|


   Verse                                                             4x
||----------------------------------|-----------------------------------||
||o-----0---1p0---0-----0---1p0---0-|-----0---1p0---0-----0---1p0---0--o||
||----0---0-----------0---0---------|---0---0-----------0---0-----------||
||------------------0-----------0---|-----------------0-----------------||
||o---------------------------------|-3-----------3---------------3----o||
||--0-----------0-------------------|-----------------------------------||


 Em  D  C  D

 Chorus 
|--------------------------------|------------------------------|
|--------------------------------|------------------------------|
|---------------7--7--7-----x--x-|-5-5-5-5-5-5-5-7-7-7-7-7-7-7--|
|-2-2-2-2-2--x--7--7--7-----x--x-|-5-5-5-5-5-5-5-7-7-7-7-7-7-7--|
|-2-2-2-2-2--x--5--5--5-----x--x-|-3-3-3-3-3-3-3-5-5-5-5-5-5-5--|
|-0-0-0-0-0--x-------------------|------------------------------|
|

|--------------------------------|------------------------------|
|--------------------------------|------------------------------|
|--------------11-11-11-12-12\---|-5-5-5-5-5-5-5-7-7-7-7-7-7-7--|
|-2-2-2-2-2--x-------------------|-5-5-5-5-5-5-5-7-7-7-7-7-7-7--|
|-2-2-2-2-2--x--9--9--9-10-10\---|-3-3-3-3-3-3-3-5-5-5-5-5-5-5--|
|-0-0-0-0-0--x-------------------|------------------------------|


|-----------------------------|-----------------------------|
|-----------------------------|-----------------------------|
|---------------7-7-7-7-7-7-7-|-5-5-5-5-5-5-5-7-7-7-7-7-7-7-|
|-2-2-2-2-2-x-x-7-7-7-7-7-7-7-|-5-5-5-5-5-5-5-7-7-7-7-7-7-7-|
|-2-2-2-2-2-x-x-5-5-5-5-5-5-5-|-3-3-3-3-3-3-3-5-5-5-5-5-5-5-|
|-0-0-0-0-0-x-x---------------|-----------------------------|
|
|-----------------------------|-----------------------------|
|-----------------------------|-----------------------------|
|---------------7-7-7-7-7-7-7-|-5-5-5-5-5-5-5-7-7-7-7-7-7-7-|
|-2-2-2-2-2-x-x-7-7-7-7-7-7-7-|-5-5-5-5-5-5-5-7-7-7-7-7-7-7-|
|-2-2-2-2-2-x-x-5-5-5-5-5-5-5-|-3-3-3-3-3-3-3-5-5-5-5-5-5-5-|
|-0-0-0-0-0-x-x---------------|-----------------------------|



|---------------------------------------|-----------------------------|
|---------------------------------------|-----------------------------|
|----------------------7--7--7-----x--x-|-5-5-5-5-5-5-5-7-7-7-7-7-7-7-|
|-2-2-2-2-2---x--7--7--7-----x--x-|-5-5-5-5-5-5-5-7-7-7-7-7-7-7-|
|-2-2-2-2-2---x--5--5--5-----x--x-|-3-3-3-3-3-3-3-5-5-5-5-5-5-5-|
|-0-0-0-0-0---x-------------------|-----------------------------|
|

|---------------------------------------|-----------------------------|
|---------------------------------------|-----------------------------|
|---------------------11-11-11-12-12\---|-5-5-5-5-5-5-5-7-7-7-7-7-7-7-|
|-2-2-2-2-2---------x-------------------|-5-5-5-5-5-5-5-7-7-7-7-7-7-7-|
|-2-2-2-2-2---------x--9--9--9-10-10\---|-3-3-3-3-3-3-3-5-5-5-5-5-5-5-|
|-0-0-0-0-0---------x-------------------|-----------------------------|


                    
|-----------------------------|------|
|-----------------------------|------|
|---------------7-7-7-7-7-7-7-|-0----|
|-2-2-2-2-2-x-x-7-7-7-7-7-7-7-|-2----|
|-2-2-2-2-2-x-x-5-5-5-5-5-5-5-|-3----|
|-0-0-0-0-0-x-x---------------|------|
|
|-----------------------------|------|
|-----------------------------|------|
|---------------7-7-7-7-7-7-7-|-5----|
|-2-2-2-2-2-x-x-7-7-7-7-7-7-7-|-5----|
|-2-2-2-2-2-x-x-5-5-5-5-5-5-5-|-3----|
|-0-0-0-0-0-x-x---------------|------|

(Back to verse)

 Bridge
 
C5  C5  D5  C5  D5

 Guitar Solo

|---------------------------------------------------------------------|
|---------------------------------------------------------------------|
|---------------------------------------------------------------------|
|--2---------2--2---2-------------------------------------------------|
|--2---------2--2---2-----------x-x--5--------5--5--5------------x--x-|
|--0---------0--0---0-----------x-x--2--------2--2--2------------x--x-|
|
|
|-12-----12-12-12-------------------12h15p12--------------------------|
|-15b17==15-15-15r-15b17==(15)r15------------15-12--------------------|
|--------------------------------------------------14b16==(14)r(14)---|
|---------------------------------------------------------------------|
|---------------------------------------------------------------------|
|---------------------------------------------------------------------|


|----------------------------------------------------------|
|----------------------------------------------------------|
|----------------------------------------------------------|
|----------------------------------------------------------|
|--5-----5-5-----5----x-x--7-----7--7--7--------------x--x-|
|--3-----3-3-----3----x-x--5-----5--5--5--------------x--x-|
|
|----------------------------------------------------------|
|----------------------------------------------------------|
|-14-16s12---14s11-12s9------------------------------------|
|-------------------------14-12-12-14-14b14.5==(14)r(14)---|
|----------------------------------------------------------|
|----------------------------------------------------------|


|----------------------------------------------------------------------------|
|----------------------------------------------------------------------------|
|----------------------------------------------------------------------------|
|--2--------2----2-----2-----------------------------------------------------|
|--2--------2----2-----2-------------x--x--5-----5----------5------5-----x-x-|
|--0--------0----0-----0-------------x--x--2-----2----------2------2-----x-x-|
|
|  PM--------------|
|--------------------------------------------------------------------------
|--------------------------------------------------------------------------
|---------------------------------------12h14-14b16==(14)r(14)p12----12----
|-------------12--14-14b(14)r(14)-12h14---------------------------14----14-
|-------12-14--------------------------------------------------------------
|-12-15--------------------------------------------------------------------


|-----------------------------------------------------------------------------
|-----------------------------------------------------------------------------
|-------------------------------------5----5-----5----5-----5--------x----x---
|-------------------------------------5----5-----5----5-----5--------x----x---
|--5-----5--5--5----------------x--x--3----3-----3----3-----3--------x----x---
|--3-----3--3--3----------------x--x------------------------------------------
|
|-----------------------------------------------------------------------------
|-14----12--------------------------------------------------------------------
|-14p12----14-14b16==(14)r(14)-12-----------------------------------12------12
|---------------------------------12---------12-14-12------12-14-14----14-----
|------------------------------------12-14--------------14--------------------
|-----------------------------------------------------------------------------


|----------------------------------------------|
|----------------------------------------------|
|---------------------------------------7----7-|
|--2--2--2--2--2-------------------x----7----7-|
|--2--2--2--2--2-------------------x----5----5-|
|--0--0--0--0--0-------------------x-----------|
|
|----------------------------------------------|
|-------17----13-----(13)--(13)--(13)--13------|
|-14s16----16-16b17==(16)--(16)--(16)r-16b17---|
|----------------------------------------------|
|----------------------------------------------|
|----------------------------------------------|


|----------------------------------------------------|
|----------------------------------------------------|
|--5-------5----5--5--5-5--5-------------------------|
|--5-------5----5--5--5-5--5-------------------------|
|--3-------3----3--3--3-3--3--5------------------5---|
|-----------------------------3------------------2---|
|
|----------------------------------------------------|
|-------------------------17-------------17-----17\--|
|-16b17==(16)r(16)---16------16b17==(16)----16r------|
|----------------------------------------------------|
|----------------------------------------------------|
|----------------------------------------------------|

(back to chorus)

|---------------------------------|-----------------------------------|
|-----0---1p0---0-----0---1p0---0-|-------0---1p0---0-----0---1p0---0-|
|---0---0-----0-----0---0-----0---|-----0---0-----0-----0---0-----0---|
|---------------------------------|-----------------------------------|
|---------------------------------|-----------------------------------|
|-0---------------0---------------|--0----------------0---------------|
|
| 
|---------------------------------|-----------------------------------|
|---------------------------------|-----------------------------------|
|---------------------------------|-----------------------------------|
|-2-------------------------------|-(2)-------------------------------|
|-2-------------------------------|-(2)-------------------------------|
|-0-------------------------------|-(0)-------------------------------|


|---------------------------------|-------------------------------|-^0----*|
|-----0---1p0---0-----0---1p0---0-|-----0---1p0---0-----0---1-0---|-^0----*|
|---0---0-----------0---0---------|---0---0-----------0---0-----0-|-^0----*|
|-----------------0-----------0---|-----------------0-------------|-^2----*|
|---------------------------------|-3-----------3-----------------|-^2----*|
|-0-----------0-------------------|-------------------------------|-^0----*|

The last chorus only goes to the octave part on the third time.  If you have
any questions or comments concerning this tab, either comment or email me at
joellaw44@hotmail.com.

* Generated using Power Tab Editor by Brad Larsen - 
http://powertab.guitarnetwork.org *

Comments about this tab

ryan_grooms22 - 2005-07-06

it sounds exactly like the song so don't worry it's awesome
peace and God Bless,
-ryan_grooms22


Fortress182 - 2005-07-29

awesome work on the tab. 100% right.


stlcardinals527 - 2008-08-25

hey bro sick tab spot on i believe! thats a ripping solo!


WayneV - 2011-01-23

I think I have it figured out except for the "r" notations. Please explain what the r means in 15-15r-15. I'm sure that when you explain it to me I will be like D-U-H! Thanks for your patience with a nooB.


Add a comment/correction

Complimentary Christian Ringtones
Dadamobile and CGR have teamed up to bring your favorite Christian artists right to your phone. Sign up today and get 10 complementary ringtones!
Tab Country
Did you know CGR has a sister site w/ country guitar tabs? Well we do! Its called Tab Country. It has a great archive with a lot of country tabs.
Rockin Tabs
Are you looking for a site that has rock guitar tabs? Then Rockintabs.com is the place for you. It is a budding site with many rock guitar tabs. Submit your tab today.
Tab Gallery
Tab Gallery has a compilation of christian, rock, and country tabs all in one place. Come visit us.