Guitar Tabs
song title    band name

Join Us Today!

Don't strum alone...
be a part of the largest online Christian music community. Browse thousands of guitar tabs and chat w/ musicians like yourself.


It's Free!

This tab has been rated a 4.00 out of 5 for accuracy. (2 votes)Sorry, but you must be logged in to rate this tab.
Click here to log-in, or you can click here to register.
(Registration is free)

All songs owned by corresponding publishing company. If you make copies of any song on this website, be sure to report your usage to CCLI.
Submitted by: BiptoN

Staple - Democracy vs. Dictatorship (DVD)

Gtr I (C G C F A D)

 4/4
  Gtr I
                     PM|
|---------------------------------------------------|
|---------------------------------------------------|
|---------------------------------------------------|
|-(0)-12-10-12-13-12-0-0-(0)-12-10-12-13-12-(12)----|
|--0---0--0--0--0--0-0-0--0---0--0--0--0--0---------|
|--0-----------------0-0--0-------------------------|


                                       PM|
|------0--0--0--0------------------||----------------------|-(0)-|---------|
|-----11-11-11-11-----------------o||----------------------|-(0)-|---------|
|-(0)--9--9--9--9------------------||------(0)-(0)-(0)-(0)-|-(0)-|---------|
|--0--------------5-0p-0-8-0p-7h8--||--0-0--0---0---0---0--|--0--|-(0)\----|
|--0--------------5-0p-0-8-0--7-8-o||--0-0--0---0---0---0--|--0--|-(0)\----|
|--0--------------5-0p-0-8-0p-7-8--||--0-0--0---0---0---0--|--0--|---------|


|--------------------------------------||
|-------------------------------------o||
|-11-11-/12-11-11-/12-15-15-15-\14-14--||
|--x--x---x--x--x---x--x--x--x---x--x--||
|--9--9-/10--9--9-/10-13-13-13-\12-12-o||
|--0--0---0--0--0---0--0--0--0---0--0--||


   ~~~               ~~~
|-------------------------------------------|
|-------------------------------------------|
|-(0)---7----5-/7-x-(0)---------------------|
|-(0)---7-7--5-/7-x-(0)-12\-0--3-3-3S5-5----|
|--0----5p0--3-/3-x--0--12\-0--3-3-3S5-5----|
|--0--------------x--0--12\-0--3-3-3S5-5----|


|--------------------------------------------------------|
|--------------------------------------------------------|
|---------9-9-9-9-10-10--(7)-(7)-(7)-(7)--(9)-(9)-(9)----|
|-8-8-8-8-x-x-x-x--x--x---7---7---7---7----7---7---7-----|
|-8-8-8-8-7-7-7-7S=9--9---7---7---7---7----7---7---7-----|
|-8-8-8-8-----------------7---7---7---7----7---7---7-----|


|------------------------------------------------------|
|------------------------------------------------------|
|------------------------------------------------------|
|-0-0--x-0-0--x-0--------------------------------------|
|-0-0--x-0-0--x-0--3p0-0--1p0--0-3p0--3p0--5p0--6p0----|
|-0-0--x-0-0--x-0--3p0-0--1p0--0-3p0-------------------|


Tablature Legend
----------------
 h   - hammer-on
 p   - pull-off
 b   - bend
 pb  - pre-bend
 r   - bend release (if no number after the r, then release immediately)
 /\  - slide into or out of (from/to "nowhere")
 s   - legato slide
 S   - shift slide
  - natural harmonic
[n]  - artificial harmonic
n(n) - tapped harmonic
 ~   - vibrato
 tr  - trill
 T   - tap
 TP  - trem. picking
 PM  - palm muting
\n/  - tremolo bar dip; n = amount to dip
 \n  - tremolo bar down
 n/  - tremolo bar up
/n\  - tremolo bar inverted dip
 =   - hold bend; also acts as connecting device for hammers/pulls
 <>  - volume swell (louder/softer)
 x   - on rhythm slash represents muted slash
 o   - on rhythm slash represents single note slash

Misc Legend
-----------
 |  - bar
||  - double bar
||o - repeat start
o|| - repeat end
*|  - double bar (ending)
 :  - bar (freetime)
 $  - Segno
 &  - Coda
Tempo markers -  = BPM(8/16=s8/s16), where s8 = swing 8ths, s16 = swing 16ths


***************************************************************************************
* Generated using Power Tab Editor by Brad Larsen - http://powertab.guitarnetwork.org *
***************************************************************************************

Comments about this tab

Garek4 - 2005-07-18

dude, this tabs awesome! it was at one of there concerts and i was standing right in front of the guitar player, and it kinda sucked cuz i couldn't hear a thing the singer was sayin, but i heard the guitar reallly good, and this tab is pretty darn accurate...i'm not sure about the intro, cuz he always turned away from me when he played it...anyways peace out, and make more tabs!!! (esspecially Pop)


blindsidelova - 2005-07-18

Keep em' coming dude. Staple rock!! If it might interest you, one of my friends from school's brother plays bass for staple live when thier normal bassis cant play. i thought that wuz kewl.


Add a comment/correction

Complimentary Christian Ringtones
Dadamobile and CGR have teamed up to bring your favorite Christian artists right to your phone. Sign up today and get 10 complementary ringtones!
Tab Country
Did you know CGR has a sister site w/ country guitar tabs? Well we do! Its called Tab Country. It has a great archive with a lot of country tabs.
Rockin Tabs
Are you looking for a site that has rock guitar tabs? Then Rockintabs.com is the place for you. It is a budding site with many rock guitar tabs. Submit your tab today.
Tab Gallery
Tab Gallery has a compilation of christian, rock, and country tabs all in one place. Come visit us.