Guitar Tabs
song title    band name

Join Us Today!

Don't strum alone...
be a part of the largest online Christian music community. Browse thousands of guitar tabs and chat w/ musicians like yourself.


It's Free!

Audio Adrenaline - It's Over

This tab has been rated a 4.50 out of 5 for accuracy. (2 votes)Sorry, but you must be logged in to rate this tab.
Click here to log-in, or you can click here to register.
(Registration is free)

All songs owned by corresponding publishing company. If you make copies of any song on this website, be sure to report your usage to CCLI.
It’s Over
Audio Adrenaline
Underdog album
C1999 Up in the Mix Music BMI
Written by Stuart,McGinniss,Herdman,Burkum
Tab:Steve Cruickshank postlambjam@hotmail.com
Corrections:Andrew Schell, Lance Roggendorff

Introduction:

e--------------------      --------
B--------------------      --------
G--------------------      --7-----
D-/10--\5--5/7-7/9-9-      --7-----
A-/10--\5------------ (x3) --5-----
E-/8---\3--3/5-5/7-7-      --5-----
---C5   G5                   D5

e--------------------      ----------
B--------------------      ---3---3--
G--------------------      --0-0-0-0-
D-/10--\5--5/7-7/9-9-      -4---4----
A-/10--\5------------ (x3) ----------
E-/8---\3--3/5-5/7-7-      ----------
---C5   G5                  D/F#

Those octaves might be just single notes on the low E string but I found
it easier to just keep your fingers in the position of the power chords
and lift your ring finger off a bit to mute A string. Also, the octaves
are not played at every G5, they’re left out at various times

Stuff like this is played throughout the intro and chorus
e-----------------------------------------
B---12--12--12--12--12--12------------15\-
G-----12--12--12--12--12--12--11-12-14----
D-12--------------------------------------
A-----------------------------------------
E-----------------------------------------
----C   G   C   G   C   G     D


VERSE:                                                 2nd time
e----7-----0-----5-----7------8p7-----0-----5---5-----|----5--10-
B---8-8---1-1---7-7---8-8----8---8---1-1---7-7-8-8-7--|---7-7----
G-/9----\2----/7----/7-----/9------\2----/7-----------|-/7-------
D-----------------------------------------------------|----------
A-----------------------------------------------------|----------
E-----------------------------------------------------|----------
---Em    Am    D     G      Em      Am    D    Dsus      D



CHORUS:
The first part is the same as the intro

Then play
e-----------------------------------------
B-----------------------------------------
G-----------------------------------------
D-4/5---0---4-5------2-/5---2-2---4-4-----
A---------------5---2------3-----5--------
E-----------------------------------------
 Em    C   D   G   Em     C     D     G
--- We hope you’ve enjoyed the show...


BRIDGE:
e--------------------
B-8-7-------8-7------
G-----9-7-------9-7--
D--------9---------9-
A--------------------
E--------------------

Then
e--------------
B-/12-12-12-12-
G--------------
D-/12-12-12-12-
A--------------
E--------------


Solo:
e---------------------------------------------
B---------------------------------------------
G-9---------9--------9-------------12-11-9-7/-
D--10-9\5----10-7/9---10-9\5------------------
A--------10-----------------10--9-------------
E---------------------------------------------
 C   G     C   G    C   G      D

e-----------------------------------------------
B-----------------------------------------------
G-9---------9-------------9------------11-12-14-
D--10-9\5----10-7/9-10-9---10-9\5----12---------
A--------10----------------------10-------------
E-----------------------------------------------
 C   G     C   G         C   G      D

e---------------------------------------------------
B-12-------12-13p12----12-12\-----------------------
G---12-14----------12--------11---12p11h12-14p12h14-
D---------------------------------------------------
A---------------------------------------------------
E---------------------------------------------------
 C G      C  G        C G   D

e-------------------------------------------
B-12-13p12----12-15p12-12---12-13p12--------
G---------12------------------------12---11-
D-------------------------------------------
A-------------------------------------------
E-------------------------------------------
 C  G        C  G          C  G         D


****
Outro:
e-----------0---      ---------------
B---0----3---3--      ---3---3-------
G----0----0----- (x3) ----0---0---0--
D-----4----4----      -4---4----4----
A-3-------------      ---------------
E---------------      ---------------



Lyrics:
Farewell, so long to you
We’ve come to the end of the night
It’s all been wonderful
A lovely and wonderful time

Chorus
Say goodnight to all the friends who
Rock and rolled beside you
We hope you’ve enjoyed the show
It’s over, it’s over, it’s all over now

This room will be empty soon
When the music and laughter is gone
This night will be forgot
But the joy you’ve found can go on

Chorus
The lights come down, don’t lose your glow
When it’s over, it’s over, it’s all over now
Is it all over? Or has it just begun?

Comments about this tab

Beyer413 - 2005-01-13

Cool tab, it's completely right, but can someone explain the song? It's just kinda there.


Kutless Fan - 2005-02-18

The song is at the end of the Underdog CD, telling us that it's the end of the CD. That's all there is to it.


hpy-monkey1213 - 2005-08-15

it took me a while to figure out what the song was saying but i still think it is for at an end of a concert --- can somebody tell me please???? although,GREAT GREAT song ;^)


amanda23 - 2005-08-23

what this song means is that after the song and/or the show will u give ur life fully to God. Though it was great u have to make that decsion. only u not ur friends just u can make that decsion. U have that spirit of God that night but don't let it be over for u. That is what i think it means.


swimmer009 - 2006-07-17

wow thats pretty good id have to go with you sweet tab man i was just listening to it and im like this is a cool song i think i'll learn it and thancx to u i can withought figuring it out formyself lol thanx my peace
god bless


louco86 - 2008-08-14

Thank you so much for the tabs!!!!!!!!


Add a comment/correction

Complimentary Christian Ringtones
Dadamobile and CGR have teamed up to bring your favorite Christian artists right to your phone. Sign up today and get 10 complementary ringtones!
Tab Country
Did you know CGR has a sister site w/ country guitar tabs? Well we do! Its called Tab Country. It has a great archive with a lot of country tabs.
Rockin Tabs
Are you looking for a site that has rock guitar tabs? Then Rockintabs.com is the place for you. It is a budding site with many rock guitar tabs. Submit your tab today.
Tab Gallery
Tab Gallery has a compilation of christian, rock, and country tabs all in one place. Come visit us.