Guitar Tabs
song title    band name

Join Us Today!

Don't strum alone...
be a part of the largest online Christian music community. Browse thousands of guitar tabs and chat w/ musicians like yourself.


It's Free!

This tab has been rated a 3.00 out of 5 for accuracy. (1 vote)Sorry, but you must be logged in to rate this tab.
Click here to log-in, or you can click here to register.
(Registration is free)

All songs owned by corresponding publishing company. If you make copies of any song on this website, be sure to report your usage to CCLI.
Submitted by: kofi

Artist: Staple
Song: Deathtrap Daisy
Album: Staple
Tabbed by: Dan Rasmussen (danras@gmail.com)

Drop C tuning

Intro:

D |---------------------------
A |---------------------------
F |---------------------------
C |-1-0--0-0-0-0-0-0-1-0-1-0--
G |-1-0--0-0-0-0-0-0-1-0-1-0--
C |-1-0--0-0-0-0-0-0-1-0-1-0--
        |___________________|
             play 3 times

D |--------
A |--------
F |--------
C |-0-0-0--
G |-0-0-0--
C |-0-0-0--

D |--------------------|------------------------------------
A |--------------------|------------------------------------
F |--------------------|------------------------------------
C |-1-0--0-0-0-0-0-0h1-|-1p0-0-0-1p0-0-0--------------------
G |-1-0--0-0-0-0-0-0h1-|-1p0-0-0-1p0-0-0--------------------
C |-1-0--0-0-0-0-0-0h1-|-1p0-0-0-1p0-0-0--------------------
     Play 3 times

Verse:

D |------5-------6-------5----------------------8-------6--------
A |--------6-------6-------6----------6-----------8-------8------
F |----------7-------7-------7----------7---7/8-----8-------8----  play 2 times
C |---7-----------------------------7----------------------------
G |-5-----------------------------5------------------------------
C |--------------------------------------------------------------

D |-----------------------------------------------------
A |-----------------------------------------------------
F |-----------------------------------------------------
C |-----------------------------------------------------
G |---12---12---12---12---12----13---13---13---13---13--
C |-12---12---12---12---12----13---13---13---13---13----

D |-----------------------------------------------------
A |---------------------------------------16------------
F |-----------------------------------------------------
C |-----------------------------------------------------
G |---12---12---12---12---12----13---13--------13---13--
C |-12---12---12---12---12----13---13---13---13---13----

D |-----------------|
A |-----------------|
F |--7---8---7---5--|
C |--7---8---7---5--|
G |--5---6---5---3--|
C |-----------------|

D |--------------------|
A |--------------------|
F |--------------------|
C |-1-0--0-0-0-0-0-0h1-|    Play 4 times
G |-1-0--0-0-0-0-0-0h1-|
C |-1-0--0-0-0-0-0-0h1-|

D |-------------------------|
A |-------------------------|
F |--7---8---7---7-8-7---5--|
C |--7---8---7---7-8-7---5--|     Play 2 times
G |--5---6---5---5-6-5---3--|
C |-------------------------|

About 2 min. 42 seconds into the song

D |------------|
A |------------|
F |--7---5--3--|
C |--7---5--3--|     Play 2 times
G |--5---3--1--|
C |------------|

D |---------------------------
A |---------------------------
F |---------------------------
C |-1-0--0-0-0-0-0-0-1-0-1-0--
G |-1-0--0-0-0-0-0-0-1-0-1-0--
C |-1-0--0-0-0-0-0-0-1-0-1-0ó

Thatís how I play it. If you have any questions feel free to email me

Comments about this tab

lilsk8rboi411 - 2005-06-11

dude how r u able to put the copyright sign on that tab?? does that mean ur part of the company or sopmething? does that mean that this is there official tab?


kofi - 2005-06-12

It is because when you try to submit a tab it says "3. Your song must include the artist and copyright information with it. They wrote the song - give them some credit for it."
And NO it does NOT mean I have anything to do with them!! this is NOT the official tab, it's figured out by ear......
Sorry for the misunderstanding...


jt16935 - 2005-12-16

nice tab bud.


Dani_Boy - 2006-04-28

Pretty good, but you missed out a lot of things. It gives you a good idea of how to play it, but it's pretty far from perfection, I am sorry to say.


Add a comment/correction

Complimentary Christian Ringtones
Dadamobile and CGR have teamed up to bring your favorite Christian artists right to your phone. Sign up today and get 10 complementary ringtones!
Tab Country
Did you know CGR has a sister site w/ country guitar tabs? Well we do! Its called Tab Country. It has a great archive with a lot of country tabs.
Rockin Tabs
Are you looking for a site that has rock guitar tabs? Then Rockintabs.com is the place for you. It is a budding site with many rock guitar tabs. Submit your tab today.
Tab Gallery
Tab Gallery has a compilation of christian, rock, and country tabs all in one place. Come visit us.