Guitar Tabs
song title    band name

Join Us Today!

Don't strum alone...
be a part of the largest online Christian music community. Browse thousands of guitar tabs and chat w/ musicians like yourself.


It's Free!

This tab has been rated a 2.50 out of 5 for accuracy. (2 votes)Sorry, but you must be logged in to rate this tab.
Click here to log-in, or you can click here to register.
(Registration is free)

All songs owned by corresponding publishing company. If you make copies of any song on this website, be sure to report your usage to CCLI.
Submitted by: chickensallad64

 intro-verse

 ------------------------
 ------------------------
 ------------------------
 77777777----77777777----    there is something between that but i cant figure it
 77777777----77777777----    out
 ------------------------

   
 ---------------------- 
 ----------------------
 ----------------------
 1-1-1/2-0--1-1-1/2-0--
 1-1-1/2-0--1-1-1/2-0--
 1-1-1/2-0--1-1-1/2-0--  

 
 pre-chorus 
 --------------------
 --------------------
 --------------------
 0-0-0-0----000-0----
 0-0-0-0-5--000-0-5h6
 0-0-0-0----000-0----
 . . . .    ... . 
 chorus
 ---------------------
 ---------------------
 --------------------- 
 2----5----0----10----
 2----5----0----10----
 2----5----0----10----

 brake-down

 -----------
 -----------
 -----------
 -----------
 9--8-------
 9--8-------

 riff
 
 ----------------
 ----------------
 ----------------
 ----------------
 0-0-5-0-7-0-8-0- mute the strings throuh it twice then unmute it twice
 ----------------
 . . . . . . . .

                                    .= palm mute
 thats it. have fun playing.
 keep rockn!    
                                   

Comments about this tab

Joe Hofner - 2005-12-07

tuning B F# B E G# C# i think it goes something like this
intro verse pre-chorus 1
G#--88888888-77777777- B--1-1-1/2-0--1-1-1/2-0 G#-88888888---------
E --88888888-77777777- F#-1-1-1/2-0--1-1-1/2-0 E--88888888---------
B--1-1-1/2-0--1-1-1/2-0 B-----------00000000
F#----------00000000
B-----------00000000
pre-chorus 2 break down riff
G#------8------8- G#-88--7- B--00-7-0-8-0-10-0-
E-------8------8- E--88--7- F#-----------------
B--0000----000--- B------------------
F#-0000----000---
B--0000----000---


Joe Hofner - 2005-12-07

sorry the first try messed up. now tuning B F# B e G# C#
intro
G#-88888888--77777777-
E--88888888--77777777-

verse
B--1-1-1/2-0--1-1-1/2-0-
F#-1-1-1/2-0--1-1-1/2-0-
B--1-1-1/2-0--1-1-1/2-0-

pre-chorus 1
G#-88888888----------
E--88888888----------
B-----------00000000-
F#----------00000000-
B-----------00000000-

pre-chorus 2
G#------8------8-
E-------8------8-
B--0000----000---
F#-0000----000---
B--0000----000---

chorus
B--3-6-1-8-
F#-3-6-1-8-
B--3-6-1-8-

break down
G#-8-8-7-
E--8-8-7-

riff
B--0-0-7-0-8-0-10-0
F#-----------------
B------------------
ok thats all i got
sounded pretty good to me hope it does to you too


Add a comment/correction

Complimentary Christian Ringtones
Dadamobile and CGR have teamed up to bring your favorite Christian artists right to your phone. Sign up today and get 10 complementary ringtones!
Tab Country
Did you know CGR has a sister site w/ country guitar tabs? Well we do! Its called Tab Country. It has a great archive with a lot of country tabs.
Rockin Tabs
Are you looking for a site that has rock guitar tabs? Then Rockintabs.com is the place for you. It is a budding site with many rock guitar tabs. Submit your tab today.
Tab Gallery
Tab Gallery has a compilation of christian, rock, and country tabs all in one place. Come visit us.