Guitar Tabs
song title    band name

Join Us Today!

Don't strum alone...
be a part of the largest online Christian music community. Browse thousands of guitar tabs and chat w/ musicians like yourself.


It's Free!

This tab has been rated a 5.00 out of 5 for accuracy. (2 votes)Sorry, but you must be logged in to rate this tab.
Click here to log-in, or you can click here to register.
(Registration is free)

All songs owned by corresponding publishing company. If you make copies of any song on this website, be sure to report your usage to CCLI.
Submitted by: SUB7EVEN

-------------------------------------------------------------------------------
			     BREATHE - Subseven
-------------------------------------------------------------------------------
Tabbed by:Josh


Tuning:Drop C (CGCFAD)
I'm almost 100% positive that its perfect...lol, jk. But I'd give it a 95%.
The tuning might be a little lower than C. I dont know because I dont have 
a keyboard or tuner handy to find out.

Ok, this song sounds to good to be this easy but I swear it is. Theres two 
guitars, Rythym (Guitar1) and Lead (Guitar2).
Guitar1 plays the same thing throughout basically all of the song.

Riff 1
Guitar1a

D|---------------------------------------------------------------------------|
A|---------------------------------------------------------------------------|
F|---------------------------------------------------------------------------|
C|--2-0-0-2-2-0-0-2-2-0-0-2-2-0-0-0--2-0-0-2-2-0-0-2-2-0-0-2-2-0-0-0---------|
G|--3-3-3-3-3-3-3-3-3-3-3-3-3-3-3-3--0-0-0-0-0-0-0-0-0-0-0-0-0-0-0-0---------|
C|---------------------------------------------------------------------------|
Guitar1 plays x2 then reapeats through the whole song.

Riff1b
Guitar2

D|---------------------------------------------------------------------------|
A|---------------------------------------------------------------------------|
F|-------------0~---------------------5-4~----5-4-------------5-4~-----------|
C|--------0h2-------3-3-2-0-2-------2-------2-----2-2-0-----2----------------|
G|--0~--------------------------------------------------3--------------------|
C|---------------------------------------------------------------------------|

D|------------------------------------------------------|
A|------------------------------------------------------|
F|---------------5-4~----5-4----------------------------|
C|-------------2-------2-----2-2-0----------------------|
G|---------------------------------3--------------------|
C|------------------------------------------------------|

Riff 2
Guitar2
D|-------------------------------------------|
A|-------------------------------------------|
F|-------------------------------------------|
C|--3~----5-5-5-5------0~--/7\5--------------|
G|--3~-----------------0~--/7\5--------------|
C|--3~-----------------0~--/7\5--------------|

Riff 3
Guitar 2
D|----------------------------------------0~-----------0~-------------0-----------|
A|------------------5~--------------------5~-----------5~-6-5---------5---------------|
F|--2p0-------------5~-----2p0------------5~---5~------5~-5-5-5-------5------------------------|
C|-------2p0-2-3-5--3~---------2p0-2-3-5--3~---5~-0h3--3~-3-3-5--0h3--3------------------------------------|
G|---------------------------------------------3~-0h3---------3--0h3--3----------------|
C|------------------------------------------------0h3------------0h3--3-------------|


Riff 4
Guitar1
Distortion! This is the only part I'm not sure about.
It fits but its not perfect. 
D|----------------|
A|----------------|
F|--5-------------|
C|--5--3--0--5----|
G|--3--3--0--5----|
C|-----3--0--5----|

D|-------------------------------------------|
A|---5-5-3-----------------------------------|
F|---------5-2-------------------------------|
C|-------------------------------------------|

Back to this chord
Guitar1
D|-----------|
A|--5~-------|
F|--5~-------|
C|--3~-------|
G|-----------|
C|-----------|

Guitar2
D|-------------------------------------------|
A|-------------------------------------------|
F|-----9b\5----------------------------------|
C|-------------------------------------------|

| /  slide up
| \  slide down
| h  hammer-on
| p  pull-off
| ~  hold note
| +  harmonic
| x  Mute note
===============================================================================

Comments about this tab

CZECHKNIGHT93 - 2005-07-24

This song is in DROP-D tuning. I go to church with a couple of the Subseven members. I was told that the CD does sound deeper and they often play this song in Drop-C#, but it was written in drop-D tuning. Great efforts on the tab. Thank you for your work.


CZECHKNIGHT93 - 2005-07-24

One of the guitarists for Subseven was very kind to play the beginning of this song for me. As I was watching him play it, I noticed he was playing a third string in the Riff 1. He was playing the A, D, & G strings (Drop-D tuning). Also, my eyes weren't fast enough, but in Riff 1b, he was bending the strings in a few places and I didn't happen to catch where. Thanks again for the tab.


tabulator - 2006-01-15

i am actually going to use this song to compete in a worship thingimabob at Fine Arts Festival this year.
so i was trying out your tabs while the song was playing on my computer, and i noticed the notes clashed.
so i retuned the guitar using your tabs,
and i realized the tabs are great, but the tuning is just everything up a sharp.
:)
nice work, and i can't wait to sing this song!!

-tomy the tabulator


Garek4 - 2006-04-08

hey, this song is pretty much perfection. just have it tuned too low, should be C#. other than that, it's flawless

cheers


chabassplaya - 2006-06-09

PLEASE TAB VAMPIRE!!!!!!


winkifuluvgod - 2006-08-14

nice job! love this song. just a thought/correction. on guitar2 riff 1b, the beginning part
D|-------------------------------
A|-------------------------------
F|-------------0~----------------
C|--------0h2-------3-3-2-0-2----
G|--0~---------------------------
C|-------------------------------
should go on guitar 1 riff 1a.
but hey. great job


winkifuluvgod - 2006-09-30

oops. nevermind what i said. ur right on!


Add a comment/correction

Complimentary Christian Ringtones
Dadamobile and CGR have teamed up to bring your favorite Christian artists right to your phone. Sign up today and get 10 complementary ringtones!
Tab Country
Did you know CGR has a sister site w/ country guitar tabs? Well we do! Its called Tab Country. It has a great archive with a lot of country tabs.
Rockin Tabs
Are you looking for a site that has rock guitar tabs? Then Rockintabs.com is the place for you. It is a budding site with many rock guitar tabs. Submit your tab today.
Tab Gallery
Tab Gallery has a compilation of christian, rock, and country tabs all in one place. Come visit us.