Guitar Tabs
song title    band name

Join Us Today!

Don't strum alone...
be a part of the largest online Christian music community. Browse thousands of guitar tabs and chat w/ musicians like yourself.


It's Free!

This tab has been rated a 4.50 out of 5 for accuracy. (2 votes)Sorry, but you must be logged in to rate this tab.
Click here to log-in, or you can click here to register.
(Registration is free)

All songs owned by corresponding publishing company. If you make copies of any song on this website, be sure to report your usage to CCLI.
Submitted by: surferdude9375

Drop D Tuning

Intro
Gtr 1
E----------------------------------------------------|
B----------------------------------------------------|
G------------------------------------13-13-13--------|
D---11-11-11---13-13-13---15-15-15---11-11-11---4----|
A---11-11-11---11-11-11---11-11-11---11-11-11---4->>-|
D---11-11-11---11-11-11---11-11-11---11-11-11---4----|

Gtr 1
E----------------------------
B----------------------------
G-------5555-----------------
D-4444--4444--4--4--4--------
A-4444--4444--4--4--4--------
D-4444--4444--4--4--4--------


Gtr 2
E---------------------------------------|----------------
B---------------------------------------|----------------
G---666---888--111111---13-13-13--------|-6-------8888---
D---------------------------------4-----|------/---------
A---444---666--8-8-8----11-11-11--4->>--|-4->>----6666---
D---------------------------------4-----|----------------


Riff of Verse 1
		        Do they...
E----------------------------------------
B----------------------------------------
G--666---666---666666---66666666---------
D--444---666---888888---44444444---------
A----------------------------------------
D----------------------------------------


Verse
E-------------------------------------------------------------
B-------------------------------------------------------------
G---6-5---8-5-------6-----6-65-6------6-65-6-----6-65-6---3X--
D-------6-----6-----6-----6-66-6------6-66-6-----6-66-6-------
A-----------------------4-------------------------------------
D-----------------------------------4---------4---------------

E-----------------------------------------------------
B-----------------------------------------------------
G------------------------------------13-13-13---------
D---11-11-11---13-13-13---15-15-15---11-11-11---4-----
A---11-11-11---11-11-11---11-11-11---11-11-11---4-----
D---11-11-11---11-11-11---11-11-11---11-11-11---4-----

E----------------------------
B----------------------------
G-------5555-----------------
D-4444--4444--4--4--4---2X---
A-4444--4444--4--4--4--------
D-4444--4444--4--4--4--------

Pre-Chorus
E----------------------------------------------------------
B----------------------------------------------------------
G---333333-------------------666666------------------------
D---333333------4444444------666666----666666-4444666------
A---111111------4444444------444444----666666-4444666------
D---------------4444444----------------666666-4444666------


Chorus
E----------------------------------------------------
B----------------------------------------------------
G---66-666-------------------33-333------------------
D---66-666------4444444------33-333-----4444666------
A---44-444------4444444------11-111-----4444666------
D---------------4444444-----------------4444666------

Verse 2					                
E-----------------------------------------------------
B-----------------------------------------------------
G------------------------------------13-13-13---------
D---11-11-11---13-13-13---15-15-15---11-11-11---4-----
A---11-11-11---11-11-11---11-11-11---11-11-11---4->>--
D---11-11-11---11-11-11---11-11-11---11-11-11---4-----

...last time before chorus
E----------------------
B----------------------
G-6-65-6----8---10--6--
D-6-66-6------/---\----
A-----------6---8---4--
D----------------------

Chorus 1x like above, 2nd time through w/o stops.

Bridge
E---------------------
B---------------------
G--3------------------
D--3--11----44----2X--
A--1--11----44--------
D-----11----44--------

E----------------------------------------------------------
B----------------------------------------------------------
G-6----8-----------6-------8888-----11-11-11----13-13-13---
D-6----8----4-----------/--------/-------------------------
A-4----6----4------4-------6666-----8--8--8-----11-11-11---
D-----------4----------------------------------------------

E-------------------------------------------
B-------------------------------------------
G-6----8------------6-6-6-----6-6-66-/-88---
D-6----8----4------6-6-6-6---6-6-6-6-/-88---
A-4----6----4-------------------------------
D-----------4-------------------------------


Chorus 1x like above, 2nd time through w/o stops.

Chours 3rd Time:
E-------------------------------------------PM-------
B----------------------------------------------------
G---55-555-------------------22-222------------------
D---55-555------3333333------22-222-----333555-------
A---33-333------3333333------00-000-----333555-------
D---------------3333333-----------------333555-------
Repeat intro

Comments about this tab

HolyRockJfreak - 2006-08-10

it looks pretty close...but the main rift is off....its a C# on the 3rd, 4th, and 5th strings...if you listen to the cd that's how its played cause you can hear more of a treble sound....so the first part should start with this chord

G-6
D-6
A-4


Add a comment/correction

Complimentary Christian Ringtones
Dadamobile and CGR have teamed up to bring your favorite Christian artists right to your phone. Sign up today and get 10 complementary ringtones!
Tab Country
Did you know CGR has a sister site w/ country guitar tabs? Well we do! Its called Tab Country. It has a great archive with a lot of country tabs.
Rockin Tabs
Are you looking for a site that has rock guitar tabs? Then Rockintabs.com is the place for you. It is a budding site with many rock guitar tabs. Submit your tab today.
Tab Gallery
Tab Gallery has a compilation of christian, rock, and country tabs all in one place. Come visit us.