Guitar Tabs
song title    band name

Join Us Today!

Don't strum alone...
be a part of the largest online Christian music community. Browse thousands of guitar tabs and chat w/ musicians like yourself.


It's Free!

This tab has been rated a 4.00 out of 5 for accuracy. (1 vote)Sorry, but you must be logged in to rate this tab.
Click here to log-in, or you can click here to register.
(Registration is free)

All songs owned by corresponding publishing company. If you make copies of any song on this website, be sure to report your usage to CCLI.
Submitted by: tennisguy224

Day of Fire (2004)
Jacobís Dream Tab

Intro (guitar 1) (0:00)
e|-----------------|
B|-----------------|
G|-5-5-x3-3-3-3333-|
D|-5-3-x3-3-3-3333-|
A|-3-3-x1-1-1-1111-|
E|-----------------|

Intro (guitar 2) (0:06)
e|-11-10~------|
B|-------13-13-|
G|-------------|
D|-------------|
A|-------------|
E|-------------|

Verse (guitar 1) (0:13)
e|-----------------|
B|-----------------|
G|-5-5-x3-3-3-3333-|
D|-5-3-x3-3-3-3333-|
A|-3-3-x1-1-1-1111-|
E|-----------------|

Verse (guitar 2) (0:13)
e|-11-10~------|
B|-------13-13-|
G|-------------|
D|-------------|
A|-------------|
E|-------------|

Pre-Chorus (guitar 3) (0:35)		
e|-----------------------------------------------|
B|-----------------------------------------------|
G|-xxx-3/5-5-5-5/8-8-8-8/10-10-10-10/12-12-12-12-|
D|-xxx-x-x-x-x-x-x-x-x-x-x--x--x--x--x--x--x--x--|
A|-xxx-1/3-3-3-3/6-6-6-6/8--8--8ó-8/-10-10-10-10-|
E|-----------------------------------------------|


Chorus (guitar 1) (0:39)	
e|-------------------------|
B|-------------------------|
G|-5-3---------------------|
D|-5-3-6-6-6-6-6-6-6-6-6-6-|
A|-3-1-6-6-6-6-6-6-6-6-6-6-|
E|-----4-4-4-4-4-4-4-4-4-4-|

Chorus (guitar 2) (0:40)
e|-11-11-11-11h10-------|
B|----------------13-13~|
G|----------------------|
D|----------------------|
A|----------------------|
E|----------------------|
	
Verse (guitar 1) (0:51)
e|-----------------|
B|-----------------|
G|-5-5-x3-3-3-3333-|
D|-5-3-x3-3-3-3333-|
A|-3-3-x1-1-1-1111-|
E|-----------------|

Verse (guitar 2) (0:51)
e|-11-10~------|
B|-------13-13-|
G|-------------|
D|-------------|
A|-------------|
E|-------------|

Pre-Chorus (guitar 3) (1:15)		
e|-------------------------------------------|
B|-------------------------------------------|
G|-3/5-5-5-5/8-8-8-8/10-10-10-10/12-12-12-12-|
D|-x-x-x-x-x-x-x-x-x-x--x--x--x--x--x--x--x--|
A|-1/3-3-3-3/6-6-6-6/8--8--8ó-8/-10-10-10-10-|
E|-------------------------------------------|

Chorus 2 (guitar 1) (1:18)
e|----------------------------| 2nd time through end on  e|---|
B|----------------------------|				 B|---|	
G|-5-3------------------------|				 G|-5-|
D|-5-3-6-6-6-6-6-6-6-6-6-6----| x2		         D|-5-|
A|-3-1-6-6-6-6-6-6-6-6-6-6----|				 A|-3-|
E|-----4-4-4-4-4-4-4-4-4-4----|				 E|---|

Chorus 2 (guitar 2) (1:19)
e|-11-11-11-11-10-------|
B|----------------13-13~|
G|----------------------|
D|----------------------|
A|----------------------|
E|----------------------|

(thereís background guitar here, but Iím not sure how
 it goes so I left it out)

Break/Solo (guitar 2) (1:49) IT GETS FAST!
e|---8-8/10~~~-15-15-15-15-15-15-15-15-15-15-15-15-15-15-15h16p13-|
B|-8--------------------------------------------------------------|
G|----------------------------------------------------------------|
D|----------------------------------------------------------------| 
A|----------------------------------------------------------------|
E|----------------------------------------------------------------|

e|-15-15-15-15-15h16p13h15-15-15-15-15-15/20-20-20-20-------------------|
B|----------------------------------------------------20-20-20-18-18-18-|
G|----------------------------------------------------------------------|
D|----------------------------------------------------------------------| 
A|----------------------------------------------------------------------|
E|----------------------------------------------------------------------|

e|-------------------|
B|-16-16-16-15-15-15-|
G|-------------------|
D|-------------------| (there is a LOT missing right here) 
A|-------------------|
E|-------------------|

Chorus (guitar 1) (2:32)
e|-------------------------|     
B|-------------------------|				 	
G|-5-3---------------------|				 
D|-5-3-6-6-6-6-6-6-6-6-6-6-|				 
A|-3-1-6-6-6-6-6-6-6-6-6-6-|				 
E|-----4-4-4-4-4-4-4-4-4-4-|				 

Chorus (guitar 2) (2:34)
e|-11-11-11-11p10---------11-11-11-11p10-----------------------|
B|----------------13-13------------------13-13--(missing part)-|
G|-------------------------------------------------------------|
D|-------------------------------------------------------------| 
A|-------------------------------------------------------------|
E|-------------------------------------------------------------|

e|-11-11-11-11p10-------|
B|----------------13-13-|
G|----------------------|
D|----------------------| 
A|----------------------|
E|----------------------|
	
Ending (guitar 2) (2:58)
e|-11-10-------11-10-11h10----------10-11-13-15-15-15----------------|
B|-------13-13-------------13h11-13----------16-16-16-(more missing)-|
G|-------------------------------------------------------------------|
D|-------------------------------------------------------------------| 
A|-------------------------------------------------------------------|
E|-------------------------------------------------------------------|


Ending (guitar 1) (3:04)
e|-----------------|
B|-----------------|
G|-5-5-x3-3-3-3333-|
D|-5-3-x3-3-3-3333-| (last time play Bb5 once)
A|-3-3-x1-1-1-1111-|
E|-----------------|

I tried really hard to get this song
down for you guys, sorry about the missing 
parts, they were really fast!!

God Bless,
Shane

Comments about this tab

disciple_777 - 2005-10-06

Good tab bro, great work. And don't worry about all that fast stuff, we don't want to clone the song anyway! This is a great way to play it.


Add a comment/correction

Complimentary Christian Ringtones
Dadamobile and CGR have teamed up to bring your favorite Christian artists right to your phone. Sign up today and get 10 complementary ringtones!
Tab Country
Did you know CGR has a sister site w/ country guitar tabs? Well we do! Its called Tab Country. It has a great archive with a lot of country tabs.
Rockin Tabs
Are you looking for a site that has rock guitar tabs? Then Rockintabs.com is the place for you. It is a budding site with many rock guitar tabs. Submit your tab today.
Tab Gallery
Tab Gallery has a compilation of christian, rock, and country tabs all in one place. Come visit us.