Guitar Tabs
song title    band name

Join Us Today!

Don't strum alone...
be a part of the largest online Christian music community. Browse thousands of guitar tabs and chat w/ musicians like yourself.


It's Free!

This tab has been rated a 4.50 out of 5 for accuracy. (4 votes)Sorry, but you must be logged in to rate this tab.
Click here to log-in, or you can click here to register.
(Registration is free)

All songs owned by corresponding publishing company. If you make copies of any song on this website, be sure to report your usage to CCLI.
Submitted by: whatsmyageagain

Song: Grey Skies Turn Blue
Artist: MxPx
Album:Atticus Dragging the Lake 3/AC/EP
Intro: 2X
E|------------------------------------------------------------------------
B|------------------------------------------------------------------------
G|---4-44--444---4-44--444------------------------------------------------
D|---4-44--444---4-44--444--6-66--666---6-66--666-------------------------
A|---2-22--222---2-22--222--6-66--666---6-66--666-------------------------
E|--------------------------4-44--444---4-44--444-------------------------

Verse: 2X
E|-------------------------------------------------------------------------
B|-------------------------------------------------------------------------
G|-------------------------------------------------------------------------
D|----4-----4----4-------4----4------4------4------4-------4------4-------4
A|-22----22----22----22----2-----------------------------------------------
E|--------------------------------44---4-44---4-44------22----22---22---22-

E|--------------------------------------------------------------------
B|-------------------------------------------------------------------
G|---------------------------------------------------------------------
D|-----4------6------2-1-------------------------------------------------
A|----------------------------------------------------------------------
E|-00------00------00----------------------------------------------------------
2nd Time Palm Mute

Chorus:
E|--------------------------------------------------------------------------
B|--------------------------------------------------------------------------
G|---4-44-444---------------------------------------------------------------
D|---4-44-444--6-66-666--4-44-444--2-22-222--6-66-666--4-44-444--2-22-222-2-
A|---2-22-222--6-66-666--4-44-444--2-22-222--6-66-666--4-44-444--2-22-222-2-
E|-------------4-44-444--2-22-222--0-00-000--4-44-444--2-22-222--0-00-000-0-

Bridge:
E|-----------------|-----------------------------
B|-----------------|-----------------------------
G|-86-468-6-4-3-(1X|------4------4-----4------4--
D|-----------------|---44-----44----44-----44----(2X)
A|-----------------|-2-----0---------------------       
E|-----------------|-------------4-----2---------

Play in this order:
Intro x2
Verse x2
Chorus x2
Intro x1
Verse x2
Chorus x2
Bridge
Intro x1
Chorus x2
Intro x2

There it is, Have Fun! I'm still working on the 2nd guitar riffs.
PS By the way the recording of this song on their new cd "Panic" is different. 
Go pick it up it's one of their best to date and they have a very special
guest singer......Mark Hoppus sings on "Wrecking Hotel Rooms" dont wait
go get it now!!!!!!!!!!!!!!!!!!!!!!!!!!!!!!!!!!!!!!! 

Comments about this tab

relient_k_evin - 2005-06-24

great job whatsmyageagain!! i can't wait for the guitar 2 tab!! keep up the good work!!


Highfive1177 - 2005-06-25

Ive just tabbed the song Heard That Sound from the latest album Panic...
which is a very good CD! Hopefully the tab should make the website soon
IT BETTER...how long does it usually take a tab to make the website??


Jubby - 2005-07-27

if you want to play the intro piano part, it is only on the b string
B----4--5--7--5--(x7--4--(end on)


whatsmyageagain - 2005-08-13

Thanks Jubby!


Add a comment/correction

Complimentary Christian Ringtones
Dadamobile and CGR have teamed up to bring your favorite Christian artists right to your phone. Sign up today and get 10 complementary ringtones!
Tab Country
Did you know CGR has a sister site w/ country guitar tabs? Well we do! Its called Tab Country. It has a great archive with a lot of country tabs.
Rockin Tabs
Are you looking for a site that has rock guitar tabs? Then Rockintabs.com is the place for you. It is a budding site with many rock guitar tabs. Submit your tab today.
Tab Gallery
Tab Gallery has a compilation of christian, rock, and country tabs all in one place. Come visit us.