Guitar Tabs
song title    band name

Join Us Today!

Don't strum alone...
be a part of the largest online Christian music community. Browse thousands of guitar tabs and chat w/ musicians like yourself.


It's Free!

This tab has been rated a 5.00 out of 5 for accuracy. (2 votes)Sorry, but you must be logged in to rate this tab.
Click here to log-in, or you can click here to register.
(Registration is free)

All songs owned by corresponding publishing company. If you make copies of any song on this website, be sure to report your usage to CCLI.
Submitted by: Dead_To_Sin

This is probably the first tab I have ever written and 
im absolutely sure this is the way it goes. I played it
With the cd and sounds just the same. Sorry for the 
length. ^_^

CGCFAD

.=palm mute
/=slide up, \=slide down,
h=hammer on, p=pull off

intro
D------------------------------------------
A------------------------------------------
F------------------------------------------
C-7\1-2-3-7\1-2-3-7\1-2-3-7\1-2-3----------
G-7\1-2-3-7\1-2-3-7\1-2-3-7\1-2-3----------
C-7\1-2-3-7\1-2-3-7\1-2-3-7\1-2-3----------

verse (X3)
c---------------------------------3-3-3-3-33
G-4-4-4-4-44-3-3-3-3-333-3-3-3-33-3-3-3-3-33
C-7-7-7-7-77-6-6-6-6-666-6-6-6-66-3-3-3-3-33

pre-chorus (trust me on this one)
c-7-7-7---3-3-3---5-5-5---0-0-0-0-
G-7-7-7---3-3-3---5-5-5---0-0-0-0-
C-7-7-7---3-3-3---5-5-5---0-0-0-0-

chorus 1 (X2)
c-00000-----00000-----00000----7\1-2-3-----
G-00000-----00000-----00000----7\1-2-3----
C-00000-----00000-----00000----7\1-2-3----
  .....     .....     .....            

chorus 2 (after listening a while you'll get it)
c-00000-0-1-1-1-1-00000-0-1-1-1-1-00000-0-1-1-1-1-7\-1-2-3
G-00000-0-1-1-1-1-00000-0-1-1-1-1-00000-0-1-1-1-1-7\-1-2-3
C-00000-0-1-1-1-1-00000-0-1-1-1-1-00000-0-1-1-1-1-7\-1-2-3
  ..... . . . . . ..... . . . . . ..... . . . . .

(at the end of this is some weird effect)
c-00000-0-1-1-1-1-00000-0-1-1-1-1-00000-0-1-1-1-1-
G-00000-0-1-1-1-1-00000-0-1-1-1-1-00000-0-1-1-1-1-
C-00000-0-1-1-1-1-00000-0-1-1-1-1-00000-0-1-1-1-1-
  ..... . . . . . ..... . . . . . ..... . . . . .

verse (X3)
c---------------------------------3-3-3-3-33
G-4-4-4-4-44-3-3-3-3-333-3-3-3-33-3-3-3-3-33
C-7-7-7-7-77-6-6-6-6-666-6-6-6-66-3-3-3-3-33

pre-chorus
c-7-7-7---3-3-3---5-5-5---0-0-0-0-
G-7-7-7---3-3-3---5-5-5---0-0-0-0-
C-7-7-7---3-3-3---5-5-5---0-0-0-0-

chorus 1
c-00000-----00000-----00000----7\1-2-3-----
G-00000-----00000-----00000----7\1-2-3----
C-00000-----00000-----00000----7\1-2-3----
  .....     .....     .....  

c-00000-----00000---------7\1-2-3-----
G-00000-----00000---------7\1-2-3----
C-00000-----00000---------7\1-2-3----
  .....     .....                         

chorus 2 (X2)
c-00000-0-1-1-1-1-00000-0-1-1-1-1-00000-0-1-1-1-1-7\-1-2-3
G-00000-0-1-1-1-1-00000-0-1-1-1-1-00000-0-1-1-1-1-7\-1-2-3
C-00000-0-1-1-1-1-00000-0-1-1-1-1-00000-0-1-1-1-1-7\-1-2-3
  ..... . . . . . ..... . . . . . ..... . . . . .

bridge pt1(X2)
c-0--/7--6---2-3-
G-0--/7--6---2-3-
C-0--/7--6---2-3-
             . . 

(X4)(no palm mute)
c-0--/7--6---2-3-
G-0--/7--6---2-3-
C-0--/7--6---2-3-

chorus 1 (X2)
c-00000-----00000-----00000----7\1-2-3----
G-00000-----00000-----00000----7\1-2-3----
C-00000-----00000-----00000----7\1-2-3----
  .....     .....     ..... 

chorus 2 (X2)
c-00000-0-1-1-1-1-00000-0-1-1-1-1-00000-0-1-1-1-1-7\-1-2-3
G-00000-0-1-1-1-1-00000-0-1-1-1-1-00000-0-1-1-1-1-7\-1-2-3
C-00000-0-1-1-1-1-00000-0-1-1-1-1-00000-0-1-1-1-1-7\-1-2-3
  ..... . . . . . ..... . . . . . ..... . . . . .

There you have it. I'm sure this is 90% accurate if not 100% ^_^
Rock On Hunters!

Comments about this tab

Garek4 - 2006-03-17

Hey, nice tab.
First of all it looks pretty darn correct. I'm not sure about the chorus. I think its just straight up open palm mutes.
I'll investigate the verses when I fix my guitar and tune it down to B.
Overall, very good tab.

Peace.


68GLP - 2006-09-01

Dude,
i have to agree with the guy below me!! i usually use tabs as a place to start and then figure out the holes in them but this is pretty stinkn good!! but i played the 2nd part of the chorus different!! i played it on the first fret and then open!!! if i am wrong correct me, pls!! but this tabs is great!!! thanks and God Bless!!!!


dogtin1234 - 2008-08-18

lol hes above you dude not below you but yeah lol that was just kinda funny and i had to point that out GOD BLESS!


Add a comment/correction

Complimentary Christian Ringtones
Dadamobile and CGR have teamed up to bring your favorite Christian artists right to your phone. Sign up today and get 10 complementary ringtones!
Tab Country
Did you know CGR has a sister site w/ country guitar tabs? Well we do! Its called Tab Country. It has a great archive with a lot of country tabs.
Rockin Tabs
Are you looking for a site that has rock guitar tabs? Then Rockintabs.com is the place for you. It is a budding site with many rock guitar tabs. Submit your tab today.
Tab Gallery
Tab Gallery has a compilation of christian, rock, and country tabs all in one place. Come visit us.