Guitar Tabs
song title    band name

Join Us Today!

Don't strum alone...
be a part of the largest online Christian music community. Browse thousands of guitar tabs and chat w/ musicians like yourself.


It's Free!

Grammatrain - She Don't Know

This tab has not yet been rated for accuracy.Sorry, but you must be logged in to rate this tab.
Click here to log-in, or you can click here to register.
(Registration is free)

All songs owned by corresponding publishing company. If you make copies of any song on this website, be sure to report your usage to CCLI.
She Don't Know
by Grammatrain
Off of the Lonely House Album
(c) 1995 Up In The Mix Music (A Division of ForeFront Communications)

A. verse progression
 E------------------|----------------|-----------------|----------------|
 B------------------|----------------|-----------------|----------------|
 G----------------4-|--4-4-4-4-4-4-4-|---------------4-|--4-4-4-4-4-4-4-|
 D--5-5-5-5-5-5-----|----------------|-5-5-5-5-5-5-----|----------------|
 A----------------2-|--2-2-2-2-2-2-2-|---------------2-|--2-2-2-2-2-2-2-|
 E--3-3-3-3-3-3-0-0-|----------------|-3-3-3-3-3-3-0-0-|----------------|(rpt)

 1. gabriel don't  need love any-more

    tries to hide her-self behind her door                            her

 2. used to be a - live in-side her dreams                            her

    life is so much harder than it seemed                             she



 E-----------------|-------------|-----------------|--------------|
 B-----------------|-------------|-----------------|--------------|
 G---------------9-|-9-9-9-9-9-9-|---------------9-|-9-9-9-9-9-9--|
 D-8-8-8-8-8-8-----|-------------|-8-8-8-8-8-8-----|--------------|
 A---------------7-|-7-7-7-7-7-7-|---------------7-|-7-7-7-7-7-7--|
 E-6-6-6-6-6-6-0-0-|-------------|-6-6-6-6-6-6-0-0-|--------------|

 1.hat   -    red            is   sac     -     red.

 2.doesn't know what's said  from voices in her head.

 E------------------|----------------|-----------------|---------------O-|
 B------------------|----------------|-----------------|---------------O-|
 G----------------4-|-4-4-4-4-4-4-4--|-----------------|---------------4-|
 D--5-5-5-5-5-5-----|----------------|-5-5-5-5-5-5-5-5-|-5-5-5-5-5-5-5---|
 A----------------2-|-2-2-2-2-2-2-2--|-----------------|---------------2-|
 E--3-3-3-3-3-3-0-0-|----------------|-3-3-3-3-3-3-3-3-|-3-3-3-3-3-3-3-O-|

 1. gabriel don't need love any                                       [dist.]

 2. mother cries red tears for her                                    (to C)




 B. intro section
 E--O--O-O-O-O-|--O--O-O-O-O-|--O--O-O-O-O-|--O--O--O--O-|
 B--O--O-O-O-O-|--O--O-O-O-O-|--O--O-O-O-O-|--O--O--O--O-|
 G--4--4-4-4-4-|--4--4-4-4-4-|--4--4-4-4-4-|--4--4--4--4-|
 D-------------|-----------O-|--O--O-O-O-2-|--2-----O----|
 A--2--2-2-2---|-------------|-----------O-|--O--2-----2-|
 E--O--O-O-O-2-|--2--2-2-2-3-|--3--3-3-3---|-----------O-|

 E--O--O-O-O-O-|--O--O-O-O-O-|--O--O-O-O-O-|--O--O--O----|
 B--O--O-O-O-O-|--O--O-O-O-O-|--O--O-O-O-O-|--O--O--O----|
 G--4--4-4-4-4-|--4--4-4-4-4-|--4--4-4-4-4-|--4--4--4----|
 D-------------|-----------O-|--O--O-O-O-2-|--2-----2--5-|
 A--2--2-2-2---|-------------|-----------O-|--O--2--O----|
 E--O--O-O-O-2-|--2--2-2-2-3-|--3--3-3-3---|-----------3-|

                                                      used  (back to A)




 C. chorus progression
 E--O--O-O-O-O-|--O--O-O-O-O-|--O--O-O-O-O-|--O--O--O--O-|
 B--O--O-O-O-O-|--O--O-O-O-O-|--O--O-O-O-O-|--O--O--O--O-|
 G--4--4-4-4-4-|--4--4-4-4-4-|--4--4-4-4-4-|--4--4--4--4-|
 D-------------|-----------O-|--O--O-O-O-2-|--2-----O----|
 A--2--2-2-2---|-------------|-----------O-|--O--2-----2-|
 E--O--O-O-O-2-|--2--2-2-2-3-|--3--3-3-3---|-----------O-|

   she      -        don't kno  -  w    you        no more,




 E--O--O-O-O-O-|--O--O-O-O-O-|--O--O-O-O-O-|--O--O--O--O-|
 B--O--O-O-O-O-|--O--O-O-O-O-|--O--O-O-O-O-|--O--O--O--O-|
 G--4--4-4-4-4-|--4--4-4-4-4-|--4--4-4-4-4-|--4--4--4--4-|
 D-------------|-----------O-|--O--O-O-O-2-|-----O--2----|
 A--2--2-2-2---|-------------|-----------O-|--2--------2-|
 E--O--O-O-O-2-|--2--2-2-2-3-|--3--3-3-3---|-----------O-|

             mo-re        she  don't even know her-self.



 E--O--O-O-O-O-|--O--O-O-O-O-|--O--O-O-O-O-|--O--O--O--O-|
 B--O--O-O-O-O-|--O--O-O-O-O-|--O--O-O-O-O-|--O--O--O--O-|
 G--4--4-4-4-4-|--4--4-4-4-4-|--4--4-4-4-4-|--4--4--4--4-|
 D-------------|-----------O-|--O--O-O-O-2-|--2-----O----|
 A--2--2-2-2---|-------------|-----------O-|--O--2-----2-|
 E--O--O-O-O-2-|--2--2-2-2-3-|--3--3-3-3---|-----------O-|

    she      -        don't kno  -  w    you        no more,



 E--O--O-O-O-O-|--O--O-O-O-O-|--O--O-O-O-O-|--O--O-----|
 B--O--O-O-O-O-|--O--O-O-O-O-|--O--O-O-O-O-|--O--O-----|
 G--4--4-4-4-4-|--4--4-4-4-4-|--4--4-4-4-4-|--4--4---4-|
 D-------------|-----------O-|--O--O-O-O-2-|-----------|
 A--2--2-2-2---|-------------|-----------O-|--2--O---2-|
 E--O--O-O-O-2-|--2--2-2-2-3-|--3--3-3-3---|-----------|

             mo-re        mo-re          yeah.



 D. bridge progression
 E--------------|-----------------------|---------------|-------------|
 B--------------|-----------------------|-O--O--O-O-----|--O--O-O-O-O-|
 G--4--4-4-4-11-|--11-11--11-11-11-11---|-4--4--4-4-----|--4--4-4-4-4-|
 D--------------|-----------------------|-2--2--2-2-----|--O--O-O-O-O-|
 A--2--2-2-2--9-|---9--9---9--9--9--9-O-|-O--O--O-O-----|-------------|
 E--------------|---------------------O-|-----------O-3-|--3--3-3-3-O-| (rpt)

 E---------------|--------------|---------------|--------------|
 B---------------|--------------|---------------|--------------|
 G----4--4-4-4-4-|--2--4--2-2-4-|----4--4-4-4-4-|--2--4--2-2-4-|
 D-------------2-|--2--2--2-2-2-|-------------2-|--2--2--2-2-2-|
 A----2--2-2-2-O-|--O--O--O-O-O-|----2--2-2-2-O-|--O--O--O-O-O-|
 E-O-------------|--------------|-O-------------|--------------|

         i didn't mean to push her.  did nothing to push her.



 E---------------|--------------|---------------|-------------|
 B---------------|--------------|---------------|-------------|
 G----4--4-4-4-4-|--2--4--2-2-4-|----4--4-4-4-4-|--7--7--7-7--|
 D-------------2-|--2--2--2-2-2-|---------------|-------------|
 A----2--2-2-2-O-|--O--O--O-O-O-|----2--2-2-2-2-|--5--5--5-5--|
 E-O-------------|--------------|-O-------------|-------------|

         isn't love & blood supposed to make her stay, make her stay?

 E--O--O-O-O-O-|--O--O-O-O-O-|--O--O-O-O-O-|--O--O--O--O-|
 B--O--O-O-O-O-|--O--O-O-O-O-|--O--O-O-O-O-|--O--O--O--O-|
 G--4--4-4-4-4-|--4--4-4-4-4-|--4--4-4-4-4-|--4--4--4--4-|
 D-------------|-----------O-|--O--O-O-O-2-|--2-----O----|
 A--2--2-2-2---|-------------|-----------O-|--O--2-----2-|
 E--O--O-O-O-2-|--2--2-2-2-3-|--3--3-3-3---|-----------O-|

 E--O--O-O-O-O-|--O--O-O-O-O-|--O--O-O-O-O-|--O--O--O--O-|
 B--O--O-O-O-O-|--O--O-O-O-O-|--O--O-O-O-O-|--O--O--O--O-|
 G--4--4-4-4-4-|--4--4-4-4-4-|--4--4-4-4-4-|--4--4--4--4-|
 D-------------|-----------O-|--O--O-O-O-2-|-----O--2----|
 A--2--2-2-2---|-------------|-----------O-|--2--------2-|
 E--O--O-O-O-2-|--2--2-2-2-3-|--3--3-3-3---|-----------O-|

 E. final chorus progression
 E--O--O-O-O-O-|--O--O-O-O-O-|--O--O-O-O-O-|--O--O--O--O-|
 B--O--O-O-O-O-|--O--O-O-O-O-|--O--O-O-O-O-|--O--O--O--O-|
 G--4--4-4-4-4-|--4--4-4-4-4-|--4--4-4-4-4-|--4--4--4--4-|
 D-------------|-----------O-|--O--O-O-O-2-|--2-----O----|
 A--2--2-2-2---|-------------|-----------O-|--O--2-----2-|
 E--O--O-O-O-2-|--2--2-2-2-3-|--3--3-3-3---|-----------O-|

    she      -        don't kno  -  w    you        no more,



 E--O--O-O-O-O-|--O--O-O-O-O-|--O--O-O-O-O-|--O--O--O--O-|
 B--O--O-O-O-O-|--O--O-O-O-O-|--O--O-O-O-O-|--O--O--O--O-|
 G--4--4-4-4-4-|--4--4-4-4-4-|--4--4-4-4-4-|--4--4--4--4-|
 D-------------|-----------O-|--O--O-O-O-2-|-----O--2----|
 A--2--2-2-2---|-------------|-----------O-|--2--------2-|
 E--O--O-O-O-2-|--2--2-2-2-3-|--3--3-3-3---|-----------O-|

             mo-re        she  don't even know her-self.



 E--O--O-O-O-O-|--O--O-O-O-O-|--O--O-O-O-O-|--O--O--O--O-|
 B--O--O-O-O-O-|--O--O-O-O-O-|--O--O-O-O-O-|--O--O--O--O-|
 G--4--4-4-4-4-|--4--4-4-4-4-|--4--4-4-4-4-|--4--4--4--4-|
 D-------------|-----------O-|--O--O-O-O-2-|--2-----O----|
 A--2--2-2-2---|-------------|-----------O-|--O--2-----2-|
 E--O--O-O-O-2-|--2--2-2-2-3-|--3--3-3-3---|-----------O-|

    she      -        don't kno  -  w    you        no more,



 E--O--O-O-O-O-|--O--O-O-O-O-|--O--O-O-O-O-|
 B--O--O-O-O-O-|--O--O-O-O-O-|--O--O-O-O-O-|
 G--4--4-4-4-4-|--4--4-4-4-4-|--4--4-4-4-4-|
 D-------------|-----------O-|--O--O-O-O-2-|
 A--2--2-2-2---|-------------|-----------O-|
 E--O--O-O-O-2-|--2--2-2-2-3-|--3--3-3-3---| (let ring)

             mo-re        mo-re.

Comments about this tab

No comments/corrections found. Add your own

Complimentary Christian Ringtones
Dadamobile and CGR have teamed up to bring your favorite Christian artists right to your phone. Sign up today and get 10 complementary ringtones!
Tab Country
Did you know CGR has a sister site w/ country guitar tabs? Well we do! Its called Tab Country. It has a great archive with a lot of country tabs.
Rockin Tabs
Are you looking for a site that has rock guitar tabs? Then Rockintabs.com is the place for you. It is a budding site with many rock guitar tabs. Submit your tab today.
Tab Gallery
Tab Gallery has a compilation of christian, rock, and country tabs all in one place. Come visit us.