Guitar Tabs
song title    band name

Join Us Today!

Don't strum alone...
be a part of the largest online Christian music community. Browse thousands of guitar tabs and chat w/ musicians like yourself.


It's Free!

This tab has been rated a 2.00 out of 5 for accuracy. (3 votes)Sorry, but you must be logged in to rate this tab.
Click here to log-in, or you can click here to register.
(Registration is free)

All songs owned by corresponding publishing company. If you make copies of any song on this website, be sure to report your usage to CCLI.
Submitted by: 12ptrsfldSTONES

Song: Apparitions of Melody
Band: Kids in the Way
Album: Apparitions of Melody
Tabbed By: Aaron Bevacqua (swnkylaxplyr@earthlink.net)
Tabbed On: June 3 2005

Tuning: Drop D (DADGBE)


\ = slide
h = hammer-on
p = pull off
X = break off note abruptly
. = palm mute
~ = let note ring
b = bend
t = tremelo pick






Intro: 

E:---------------------------------------
B:---------------------------------------
G:---------------------------------------
D:---------------------------------------
A:4-47h47h4-4-47h47h4--2-25h25h2--44-44--
D:--------------------------------44-44--

E:------------------------------------------
B:------------------------------------------
G:------------------------------------------
D:------------------------------------------
A:4-47h47h4-4-47h47h4--2-25h25h2--44-44-4\\-
D:--------------------------------44-44-4\\-


Verse: Only bass and drums at first, then: 

E:---------------------------------------
B:---------------------------------------
G:---------------------------------------
D:---------------------------------------
A:4-47h47h4-4-47h47h4--2-25h25h2--44-44--
D:--------------------------------44-44--

E:---------------------------------------
B:---------------------------------------
G:---------------------------------------
D:---------------------------------------
A:4-47h47h4-4-47h47h4--2-25h25h2--44-44--
D:--------------------------------44-44--


Chorus: 

E:-------------------------------------------------
B:-------------------------------------------------
G:9X99999X99X-8X88888X88X-6X66666X66X-8X88888X88X--
D:7X77777X77X-8X88888X88X-6X-6666X66X-8X88888X88X--
A:7X77777X77X-6X66666X66X-4X44444X44X-6X66666X66X--
D:-------------------------------------------------

E:---------------------------------------------------
B:-----------------------------------------------7~--
G:9X99999X99X-8X88888X88X-6X66666X66X-8-888-8888-----
D:7X77777X77X-8X88888X88X-6X66666X66X-8-888----------
A:7X77777X77X-6X66666X66X-4X44444X44X-6-666----------
D:---------------------------------------------------


Bridge:

E:---------------------------------------
B:---------------------------------------
G:---------------------------------------
D:---------------------------------------
A:4-47h47h4-4-47h47h4--2-25h25h2--44-44--
D:--------------------------------44-44--

E:---------------------------------------
B:---------------------------------------
G:---------------------------------------
D:---------------------------------------
A:4-47h47h4-4-47h47h4--2-25h25h2--44-44--
D:--------------------------------44-44--




Verse 2: Not really sure what the chords are 




Bridge:

E:---------------------------------------
B:---------------------------------------
G:---------------------------------------
D:---------------------------------------
A:4-47h47h4-4-47h47h4--2-25h25h2--44-44--
D:--------------------------------44-44--

E:---------------------------------------
B:---------------------------------------
G:---------------------------------------
D:---------------------------------------
A:4-47h47h4-4-47h47h4--2-25h25h2--44-44--
D:--------------------------------44-44--


Chorus: 

E:-------------------------------------------------
B:-------------------------------------------------
G:9X99999X99X-8X88888X88X-6X66666X66X-8X88888X88X--
D:7X77777X77X-8X88888X88X-6X-6666X66X-8X88888X88X--
A:7X77777X77X-6X66666X66X-4X44444X44X-6X66666X66X--
D:-------------------------------------------------

E:------------------------------------------------------
B:-----------------------------------------------7-5\\--
G:9X99999X99X-8X88888X88X-6X66666X66X-8-888-8888--------
D:7X77777X77X-8X88888X88X-6X66666X66X-8-888-------------
A:7X77777X77X-6X66666X66X-4X44444X44X-6-666-------------
D:------------------------------------------------------


Interlude: I have no idea what that sound is after the tremelo 
notes on the B string; if anyone does, can you tell me what it 
is and how to do it??

E:14t---------------------------14t------------------------------
B:---------------14t---------------------------14t---------------
G:---------------------------------------------------------------
D:---------------------------------------------------------------
A:---------------------------------------------------------------
D:---------------------------------------------------------------

E:14t-------------------------------------------------------------
B:---------------14t------------16t------------17t----------17b~--
G:----------------------------------------------------------------
D:----------------------------------------------------------------
A:----------------------------------------------------------------
D:----------------------------------------------------------------


E:-----------------------
B:-----------------------
G:-----------------------
D:7~~--7~~--9~~--9~~-----
A:7~~--7~~--9~~--9~~-----
D:7~~--7~~--9~~--9~~-----


Chorus: 

E:-------------------------------------------------
B:-------------------------------------------------
G:9X99999X99X-8X88888X88X-6X66666X66X-8X88888X88X--
D:7X77777X77X-8X88888X88X-6X-6666X66X-8X88888X88X--
A:7X77777X77X-6X66666X66X-4X44444X44X-6X66666X66X--
D:-------------------------------------------------

E:--------------------------------------------------
B:-----------------------------------------------7--
G:9X99999X99X-8X88888X88X-6X66666X66X-8-888-8888----
D:7X77777X77X-8X88888X88X-6X66666X66X-8-888---------
A:7X77777X77X-6X66666X66X-4X44444X44X-6-666---------
D:--------------------------------------------------


Outro: 

E:---------------------------------------
B:---------------------------------------
G:---------------------------------------
D:---------------------------------------
A:4-47h47h4-4-47h47h4--2-25h25h2--44-44--
D:--------------------------------44-44--

E:---------------------------------------
B:---------------------------------------
G:---------------------------------------
D:---------------------------------------
A:4-47h47h4-4-47h47h4--2-25h25h2--44-44--
D:--------------------------------44-44--

E:---------------------------------------
B:---------------------------------------
G:---------------------------------------
D:---------------------------------------
A:4-47h47h4-4-47h47h4--2-25h25h2--44-44--
D:--------------------------------44-44--

E:---------------------------------------
B:---------------------------------------
G:---------------------------------------
D:---------------------------------------
A:4-47h47h4-4-47h47h4--2-25h25h2--44-44--
D:--------------------------------44-44--

E:-------------------------------------------
B:-------------------------------------------
G:-------------------------------------------
D:-------------------------------------------
A:4-47h47h4-4-47h47h4--2-25h25h2--44-44-4\\--
D:--------------------------------44-44-4\\--


There we go, I'm not sure about it all, but its pretty good,
I think. PLEASE VOTE!!!!

Comments about this tab

underground - 2005-09-18

Check out the first submited tab on the kids in the way page. I think that chorus is right.


akaukal - 2006-03-29

this tab is... just not even close.


ice_wiz - 2006-06-30

Sorry man, but this tab flat-out sucks. I know you tryed, but man, how do listen to the song and get that? You got intro right and you wrote it out good, just more practice is all you need.


Add a comment/correction

Complimentary Christian Ringtones
Dadamobile and CGR have teamed up to bring your favorite Christian artists right to your phone. Sign up today and get 10 complementary ringtones!
Tab Country
Did you know CGR has a sister site w/ country guitar tabs? Well we do! Its called Tab Country. It has a great archive with a lot of country tabs.
Rockin Tabs
Are you looking for a site that has rock guitar tabs? Then Rockintabs.com is the place for you. It is a budding site with many rock guitar tabs. Submit your tab today.
Tab Gallery
Tab Gallery has a compilation of christian, rock, and country tabs all in one place. Come visit us.