Guitar Tabs
song title    band name

Join Us Today!

Don't strum alone...
be a part of the largest online Christian music community. Browse thousands of guitar tabs and chat w/ musicians like yourself.


It's Free!

This tab has been rated a 3.00 out of 5 for accuracy. (6 votes)Sorry, but you must be logged in to rate this tab.
Click here to log-in, or you can click here to register.
(Registration is free)

All songs owned by corresponding publishing company. If you make copies of any song on this website, be sure to report your usage to CCLI.
Submitted by: consagrado

E ----------------------7-5-3h5---12---15------------------------------------------------------------
B 5--5-5h7-8--------8-----------------12—15---12-10-8------------------------------------------
G------------- 7---7-9------------------------------------------7--7h9-11-11h12---14---16---14-
D-------------7-9---------------------------------------------------------------------------------------


E--------------------------
B--------------------------
G 12---14---9---7---7h9 
D--------------------------

Comments about this tab

janjan_invzim - 2005-09-10

i'll research for this tab' i already play this song and it's solo...
maybe i'll do it sometime


druming4god - 2005-11-17

the last part sounds kinda wierd


jhoe_string - 2006-01-19

well guys you can try this....



Middle Solo from “To the Ends of the Earth” by Joel Houston

e-------------------------------------------------------------------|
B---5—7s8------------8—-10s12p10------------------------------------|
G----------7-----7-9------------------------------------------------|
D------------7h9----------------------------------------------------|
A-------------------------------------------------------------------|
E-------------------------------------------------------------------|


e----12h15-----------------------------------------------------------|
B---------15h17-13h15-12h13—12-------------------------13s15--15-----|
G------------------------------14-12-14-------------12---------------|
D---------------------------------------14----12-14------------------|
A------------------------------------------14------------------------|
E--------------------------------------------------------------------|



thanks,,, can comment just email me jhoe_string@yahoo.com
God bless
keep on fire for JESUS coz JESUS rules!!!


wdougall - 2006-02-04

Hey guys..this is how i did the solo on guitar pro 5.0. It is extremely accurate. Enjoy and God bless!

E Q Q E E E H Q E E
E||--------------------------|-------------------------|
B||--------------------7--8--|-------------------------|
G||--7s--9~----L----L--------|--7~--------L------------|
D||--------------------------|-----------------7s--12--|
A||--------------------------|-------------------------|
E||--------------------------|-------------------------|


Q Q Q Q E S S E E E Q E
--------------------------|---------------------------------|
--------------------8~----|--12--12-12-12--10--10~--L----L--|
--------7~----9~----------|---------------------------------|
--9~----------------------|---------------------------------|
--------------------------|---------------------------------|
--------------------------|---------------------------------|


S E S S E S S E S S E S E E E E E E E E
--12s-15-----------------------------------|-------------------------------|
------------15s-17----12s-15----10s-12~--L-|---L--10--8--10----------------|
-------------------------------------------|--------------------7--7s--9~--|
-------------------------------------------|-------------------------------|
-------------------------------------------|-------------------------------|
-------------------------------------------|-------------------------------|


E Q Q Q E E Q Q Q E
-------------------------------|---------------------------|
-------------------------------|-----15~----15~------------|
--L--11~----12~----14~----16~--|--L------------------------|
-------------------------------|---------------------------|
-------------------------------|---------------------------|
-------------------------------|---------------------------|


Q E Q E E E 4x
|--------------------------||
|---8----7--5----3--5--7---||
|*------------------------*||
|*------------------------*||
|--------------------------||
|--------------------------||




Duration Legend
---------------
W - whole
H - half
Q - quarter
E - 8th
S - 16th
T - 32nd
X - 64th
. - note dotted
|-n-| - n-tuplets


Tablature Legend
----------------
L - tied note
x - dead note
g - grace note
(n) - ghost note
> - accentuded note
NH - natural harmonic
AH - artificial harmonic
TH - tapped harmonic
SH - semi harmonic
PH - pitch harmonic
h - hammer on
p - pull off
b - bend
br - bendRelease
pb - preBend
pbr - preBendRelease
brb - bendReleaseBend
\n/ - tremolo bar dip
\n - tremolo bar dive
-/n - tremolo bar Release up
/n\ - tremolo bar inverted dip
/n - tremolo bar return
-\n - tremolo bar Release down
S - shift slide
s - legato slide
/ - slide into from below or out of upwards
\ - slide into from above or out of downwards
~ - vibrato
W - wide vibrato
tr - trill
TP - tremolo picking
T - tapping
S - slap
P - pop
< - fade in
^ - brush up
v - brush down


Add a comment/correction

Complimentary Christian Ringtones
Dadamobile and CGR have teamed up to bring your favorite Christian artists right to your phone. Sign up today and get 10 complementary ringtones!
Tab Country
Did you know CGR has a sister site w/ country guitar tabs? Well we do! Its called Tab Country. It has a great archive with a lot of country tabs.
Rockin Tabs
Are you looking for a site that has rock guitar tabs? Then Rockintabs.com is the place for you. It is a budding site with many rock guitar tabs. Submit your tab today.
Tab Gallery
Tab Gallery has a compilation of christian, rock, and country tabs all in one place. Come visit us.