Guitar Tabs
song title    band name

Join Us Today!

Don't strum alone...
be a part of the largest online Christian music community. Browse thousands of guitar tabs and chat w/ musicians like yourself.


It's Free!

This tab has been rated a 2.50 out of 5 for accuracy. (2 votes)Sorry, but you must be logged in to rate this tab.
Click here to log-in, or you can click here to register.
(Registration is free)

All songs owned by corresponding publishing company. If you make copies of any song on this website, be sure to report your usage to CCLI.
Submitted by: eck0r34

Our Love is Loud
The David Crowder Band

Solo and Into

the intro is located in the beginning
the solo is located 1 minute and 03 seconds into the song.

Intro (There are two guitars playing in sync)

Guitar One

B: -5-7-5-4-5-0--5-7--7-9-7-9-10-9-7--5-7-5-4-5-0--5-7--0---5-0--------(X2)

Guitar Two

B: -5-7-5-4-5-0--5-7--7-9-7-9-10-9-7--5-7-5-4-5-0--5-7--7-9-7-9-10-9-7-(X2)


Solo (Timing can be figured out by listening to the song)

E: -----------7-----------------------7----------------------------------------
B: -5-7-4-5--5---4-5-5-7-4--5-7-4-5--5--5-5-7-4--5-7-4-5--5--4-5-7-4-5--5-7-4-5
----7----5-5-4-
-5-7---5-5-5-5-


=D this is my first tab and i just felt like doing this cause, the other ones 
didn't seem so accurate.
haha happy jamming

Comments about this tab

eck0r34 - 2005-08-14

actually for intro it should be

Guitar One

B: -5-7-5-4-5-0--5-7-0--7-9-7-9-10-9-7-
-5-7-5-4-5-0--5-7--0---5-0--------(X2)

Guitar Two

B: -5-7-5-4-5-0--5-7-0--7-9-7-9-10-9-7-
-5-7-5-4-5-0--5-7--7-9-7-9-10-9-7-(X2)


Add a comment/correction

Complimentary Christian Ringtones
Dadamobile and CGR have teamed up to bring your favorite Christian artists right to your phone. Sign up today and get 10 complementary ringtones!
Tab Country
Did you know CGR has a sister site w/ country guitar tabs? Well we do! Its called Tab Country. It has a great archive with a lot of country tabs.
Rockin Tabs
Are you looking for a site that has rock guitar tabs? Then Rockintabs.com is the place for you. It is a budding site with many rock guitar tabs. Submit your tab today.
Tab Gallery
Tab Gallery has a compilation of christian, rock, and country tabs all in one place. Come visit us.