Guitar Tabs
song title    band name

Join Us Today!

Don't strum alone...
be a part of the largest online Christian music community. Browse thousands of guitar tabs and chat w/ musicians like yourself.


It's Free!

This tab has been rated a 2.60 out of 5 for accuracy. (10 votes)Sorry, but you must be logged in to rate this tab.
Click here to log-in, or you can click here to register.
(Registration is free)

All songs owned by corresponding publishing company. If you make copies of any song on this website, be sure to report your usage to CCLI.
Submitted by: lientkrocker

intro lead


G[-8-8-8-8-9-9----------------------------]
D[-------------9-9-11-11-11-11-11-11-11-11]


G[-8-8-8-8-9-9-----------------13-13-11-11]
D[-------------9-9-11-11-11-11------------]



Then you just repeat this for the verse.
This is my first tab so please let me know how I did. (relient k ROCKS) ;)

Comments about this tab

Kuhn_dog11 - 2005-06-04

You need more....... it just doesnt sound like it


ryan_grooms22 - 2005-06-15

i think it sounds perfect
good job
peace and god bless
-ryan_grooms22


lientkrocker - 2005-06-23

there is another part but it's hard to play along with the first part one guitarl. it goes like this.

D/-9-9-------------------/
A/-----9-9-11-11-7-7-9-9-/

i dunno somethin like that. God Bless


Techguitarman - 2005-06-29

yeah you got it...it's just the bass line a few octaves up...try the chords next time...and relient k does rock.

-PB


farfromhim - 2005-07-05

This isn't how the song is played. You have the root notes right.....but mostly everything else is missing.


rvltn22 - 2005-07-11

i think my guitar might be tuned flat... i've gotta tune it, but but of those tabs, when i play it to the song, sound a fret too high. well, i tabbed it myself with both and this is what i got. it sounds right with the song.

e-----------------------------------------------------------
B-----------------------------------------------------------
G-7--7--7--7--8--8------------------------------------------
D-8--8--------------8--8--10--10--10--10--10--10--10--10----
A-------8--8-10-10--6--6--10--10--10--10--10--10--10--10----
E-----------------------------------------------------------


e-----------------------------------------------------------
B-----------------------------------------------------------
G-7--7--7--7--8--8------------------------12--12--10--10----
D-8--8--------------8--8--10--10--10--10--10--10--10--10----
A-------8--8-10-10--6--6--10--10--10--10--------------------
E-----------------------------------------------------------

yea... if my guitar really is tuned wrong, play it relevent to capo first fret. otherwise, it sounds pretty much like the cd. feel free to correct or what ever. its a good song.
well, keep praisin God(dont forget thats what we are doing) and God bless!


guitarplayer67 - 2005-07-14

hey rvltn22 your guitar is out of tune cuz i tried 2 play ur correction and it didnt work. i belive that who ever tabbed this corrected it 100% correct, but it is realy short


meeko123 - 2005-07-29

B--4-4-4-4--5-5-5-5-----------------
G--4-4------2-2-4-4-----------------
D------4-4-----------6-6-6-6-6-6-6-6
A--------------------6-6-6-6-6-6-6-6

This is it. Or, as far as i'm certain. It sounds exactly like the recording.


guitarman_14 - 2005-08-03

I think that there's a second guitar that goes:
A-22-----77---------
E---22-55---4444444-

I could be wrong, but I think it sounds pretty good

Mark


kutlesstrongtwr - 2005-08-04

meeko123 you got it man except for that first riff thing keep on the 3rd string, what you are hearing is another guitar part underneath. Also add this high part

after playing through once end with the following
E|-4-4-2-2-

gimme some help here that is is the main part I don't know if there are any other notes played with or not


weech_o77 - 2005-08-28

ok, rvltn22 was on the right track, yes your guitar is detuned 1/2 step, and just one part was a little off, here it is

E
B
G 8 8 8 8 9 9 9 9
D 9 9 9 9 11 11 11 11 11 11 11 11
A 9 9 12 12 11 11 11 11 11 11 11 11
E

E
B
G 8 8 8 8 9 9 9 9 13 13 11 11
D 9 9 9 9 11 11 11 11 11 11 11 11
A 9 9 12 12 11 11 11 11
E
|-------|
yeah was just this part that rvltn22 had wrong, other than detuning, otherwise it was right. Rock on!


weech_o77 - 2005-10-29

oops, somehow my tab got messed up. here's how it's supposed to be:

E------------------------------------------
B------------------------------------------
G-8-8-8-8--9--9-9-9------------------------
D-9-9-x-x--x--x-9-9-11-11-11-11-11-11-11-11
A-----9-9-12-12-----11-11-11-11-11-11-11-11
E------------------------------------------

E------------------------------------------
B------------------------------------------
G-8-8-8-8--9--9-9-9-------------13-13-11-11
D-9-9-x-x--x--x-9-9-11-11-11-11-11-11-11-11
A-----9-9-12-12-----11-11-11-11------------
E------------------------------------------

let this be a lesson to all who would submit a tab without all the hyphens everywhere... i admit my mistake


andy laroque - 2005-10-31

i thin it sounds good but i cant play the whole thing if any 1 knows any good tab websites or any easy guitar tabs for a biginner you can email me at ahsftblplaya08@aol.com


Kyle1121 - 2006-01-29

I'm so sorry. I left the exact same tab that I had heard from a friend before
I looked at yours. Anyway, it sounds perfect to me.


Third_Day_Rocks - 2006-07-13

Look on worship together .com for the correct way to play this song


Third_Day_Rocks - 2006-07-19

If you want the correct chords and intro tab of this song just go to worshiptogether.com. Or just go to the tab requests forum, under worship together new song cafe and I posted the link to the video.


Add a comment/correction

Complimentary Christian Ringtones
Dadamobile and CGR have teamed up to bring your favorite Christian artists right to your phone. Sign up today and get 10 complementary ringtones!
Tab Country
Did you know CGR has a sister site w/ country guitar tabs? Well we do! Its called Tab Country. It has a great archive with a lot of country tabs.
Rockin Tabs
Are you looking for a site that has rock guitar tabs? Then Rockintabs.com is the place for you. It is a budding site with many rock guitar tabs. Submit your tab today.
Tab Gallery
Tab Gallery has a compilation of christian, rock, and country tabs all in one place. Come visit us.