Guitar Tabs
song title    band name

Join Us Today!

Don't strum alone...
be a part of the largest online Christian music community. Browse thousands of guitar tabs and chat w/ musicians like yourself.


It's Free!

This tab has been rated a 4.50 out of 5 for accuracy. (2 votes)Sorry, but you must be logged in to rate this tab.
Click here to log-in, or you can click here to register.
(Registration is free)

All songs owned by corresponding publishing company. If you make copies of any song on this website, be sure to report your usage to CCLI.
Submitted by: Smalls

“Captivate Us”
Artist: Watermark
Album: The Purest Place
Words and Music by: Charlie Hall, Christy Nockels & Nathan Nockels
Transcribed by Steve Smalls soak_up_the_Son@juno.com
Lyrics can be found at http://www.watermark-online.com/

Capo I

Intro:
e|---------------------------------------------------------------------------
b|-8------8---7------7-----5---------5----3------3----1-------1-----------3--
g|---0-----------0------------0----0---------0-----------0--------------0----
d|--------------------------------------------------------------------0------
a|-----10----------9------------7--------------5-----------3--------2--------
E|---------------------------------------------------------------------------

Verse:
	G D/F# Em Em7
	C2 G/B C2 Dadd4 C2  
	G D/F# Em Em7
	C2 G/B C2 Dadd4 G*


Chorus:
        C2 D Bm11 Em7
        C2 D G*
        C2 D Bm11 Em7
        C2 D Dsus4          
     
Bridge:
        C2 D Dsus/Bb Dsus/A G
        C2 D Dsus/Bb Dsus/A G
        C2 D  
        G D/F# Em Am G




Chords used:
   
    G  G* G/B  D  D/F# C2 Dadd4  Am Am7 Em  Em7  Bm11 Dsus/Bb Dsus/A
e|--3--3--3----2--x----0--0------0--0---0---0----x----0-------0-------
b|--3—(1)-3----3--3----3--5------1--1---0---3----3----3-------3-------
g|--0--0--0----2--2----0--0------2--0---0---0----2----2-------2-------
d|--0--0--0----0--0----2--4------2--2---2---2----x----0-------0-------
a|--2--2--2-------x----3--5------0--0---2---2----2----1-------0-------
E|--3--3--x-------2---------------------0---0----x----x-------x-------

The G* is an indication of a "hammer-on" while the x means to mute the string.

Comments about this tab

No comments/corrections found. Add your own

Complimentary Christian Ringtones
Dadamobile and CGR have teamed up to bring your favorite Christian artists right to your phone. Sign up today and get 10 complementary ringtones!
Tab Country
Did you know CGR has a sister site w/ country guitar tabs? Well we do! Its called Tab Country. It has a great archive with a lot of country tabs.
Rockin Tabs
Are you looking for a site that has rock guitar tabs? Then Rockintabs.com is the place for you. It is a budding site with many rock guitar tabs. Submit your tab today.
Tab Gallery
Tab Gallery has a compilation of christian, rock, and country tabs all in one place. Come visit us.