Guitar Tabs
song title    band name

Join Us Today!

Don't strum alone...
be a part of the largest online Christian music community. Browse thousands of guitar tabs and chat w/ musicians like yourself.


It's Free!

This tab has not yet been rated for accuracy.Sorry, but you must be logged in to rate this tab.
Click here to log-in, or you can click here to register.
(Registration is free)

All songs owned by corresponding publishing company. If you make copies of any song on this website, be sure to report your usage to CCLI.
Submitted by: kofi

Artist: Radial Angel
Song: Not Beautiful
Album: Summer Fade
Tabbed by: Dan Rasmussen (danras@gmail.com)

Verse:
       B       A       G
e-------7------5-------3-----
B-------7------5-------3-----
G-------7------6-------4-----
D-------9------7-------5-----
A-----9--------7-------5-----
E---7--------5---------3-----

During last line of the verse
e------------------
B------------------
G--7----7----7-----
D----9----9----9---
A------------------
E------------------

Chorus:

   G5  D5  A5

e-------------
B-------------
G------7------
D--5---7---7--
A--5---5---7--
E--3-------5--

At the end of the chorus 
e---------------------------------------------
B---------------------------------------------
G---------------------------------19-19-16----
D---14h16--16p14---16p14---16p14--------------
A---------------------------------------------
E---------------------------------------------

Verse 2
Chorus

At the end of the chorus second time
e-------------------------------------
B-------------14s15------------14s15--
G14h16p14-14---------14h16p14--------  Play 2 times
D-------------------------------------
A-------------------------------------
E-------------------------------------

e------------------------------17-----
B-------------14s15---------------15--
G14h16p14-14---------14h16p14--------
D-------------------------------------
A-------------------------------------
E-------------------------------------

e-14h15p14--15h17--15p14--15p14------------------------
B--------------------------------1517b19r17-----------
G--------------------------------------------14s16s18-
D------------------------------------------------------
A------------------------------------------------------
E------------------------------------------------------

Chorus

2000-2004 Radial Angel. All Rights Reserved.

Comments about this tab

azn_sk8er411 - 2006-01-02

this is really bad....


kofi - 2006-03-27

okay....I had one of my friends, who is a better guitarist than me, look at it but he only found small missing pieces and not that all the chords were wrong....If you could tell me what is wrong with it I will try to correct it


Radial_Jared - 2007-03-07

i dont know the lead parts, but as far as the chords this is exact...


Add a comment/correction

Complimentary Christian Ringtones
Dadamobile and CGR have teamed up to bring your favorite Christian artists right to your phone. Sign up today and get 10 complementary ringtones!
Tab Country
Did you know CGR has a sister site w/ country guitar tabs? Well we do! Its called Tab Country. It has a great archive with a lot of country tabs.
Rockin Tabs
Are you looking for a site that has rock guitar tabs? Then Rockintabs.com is the place for you. It is a budding site with many rock guitar tabs. Submit your tab today.
Tab Gallery
Tab Gallery has a compilation of christian, rock, and country tabs all in one place. Come visit us.