Guitar Tabs
song title    band name

Join Us Today!

Don't strum alone...
be a part of the largest online Christian music community. Browse thousands of guitar tabs and chat w/ musicians like yourself.


It's Free!

This tab has been rated a 4.00 out of 5 for accuracy. (2 votes)Sorry, but you must be logged in to rate this tab.
Click here to log-in, or you can click here to register.
(Registration is free)

All songs owned by corresponding publishing company. If you make copies of any song on this website, be sure to report your usage to CCLI.
Submitted by: NO DIS

Thousand foot krutch- Smalltown
Intro/Main riff (I've put the chord shapes above the tab so it's easier to work out how to pick it). Play clean.
       E                                 F#m            A                                       D                 
E-----------------------------------------------------------------------------0----------0------------2----------3p2
B-------------------------------------------------------------2-----------------2----------2------------3------3----
G---1-----1------1--1-----1\----------------------2---------------------2----------2------------2-----------2----
D---2-----2------2--2-----2\4----4------------2----------------------------------------------------------------------
A---2-----2------2--2-----2\4----4------------0----------------------------------------------------------------------
E---0-----0------0--0-----0\2----2-----------------------------------------------------------------------------------
Play this 4x for the intro and 8x for verse 1

Chorus (Distortion)
E--------------------------------------------------------------------------------------------------------------
B--------------------------------------------------------------------------------------------------------------
G-------------------------------------------------------------------------------------------------------------
D----3-----3-3-3-3--3---3--------5-------5----5-5---5\7--7\9----------------
A----3-----3-3-3-3--3---3--------5-------5----5-5---5\7--7\9----------------
E----1-----1-1-1-1--1---1--------3-------3----3-3---3\5--5\7-----------------

E--------------------------------------------------------------------------------------------------------------
B--------------------------------------------------------------------------------------------------------------
G-------------------------------------------------------------------------------------------------------------
D--2-----2-----x-x-x-x-----2---2----x-x-----2-------------------------------------------------
A--2-----2-----x-x-x-x-----2---2----x-x-----2------------------Play 2x--------------
E--0-----0-----x-x-x-x-----0---0----x-x-----0-----------------------------------------------

Then back to main riff. This time play it 10x for verse 2
Chorus and Main Riff again 4x

Solo- now we get to the fun bit
(guitar1-lead)  i think there's a hint of wah, or some other effect, but you don't really need it.
E----5-------7--5-----12---10-----------5-5\7----7---7/5---3p-0------------------
B--------------------------------------------------------------------------------------------------------------
G-------------------------------------------------------------------------------------------------------------
D-------------------------------------------------------------------------------------------------------------
A-------------------------------------------------------------------------------------------------------------
E--------------------------------------------------------------------------------------------------------------

E-----0-------7--5--12----5\---12bu(13)-(12)-(13)-(12)-(13)-(12)-(13)p10-------
B--------------------------------------------------------------------------------------------------------------
G-------------------------------------------------------------------------------------------------------------
D-------------------------------------------------------------------------------------------------------------
A-------------------------------------------------------------------------------------------------------------
E--------------------------------------------------------------------------------------------------------------

E----5-------7--5-----12---10-----------5-5\7----7---7/5--3p0---------------B----------------------------------
G-------------------------------------------------------------------------------------------------------------
D-------------------------------------------------------------------------------------------------------------
A-------------------------------------------------------------------------------------------------------------
E--------------------------------------------------------------------------------------------------------------

E--------5-------7--5-----12---10-----------------------------------------------------------------
B--------------------------------------------------------------------------------------------------------------
G-------------------------------------------------------------------------------------------------------------
D-------------------------------------------------------------------------------------------------------------
A-------------------------------------------------------------------------------------------------------------
E--------------------------------------------------------------------------------------------------------------
(Guitar 2-Rhythm)
E--------------------------------------------------------------------------------------------------------------
B--------------------------------------------------------------------------------------------------------------
G-------------------------------------------------------------------------------------------------------------
D--2-----2--2------4--3------7-------------Play-------------------------------------------------
A--2-----2--2------4--3------7-----------------4x--------------------------------------------------
E--0-----0--0------2--1------5------------------------------------------------------------------------
Ending
E--------------------------------------------------------------------------------------------------------------
B--------------------------------------------------------------------------------------------------------------
G--------------------------------xx5----------------------------Play 3x----------------------------------
D-----3---------55---5---xx5-------xx7---------------------------------------------------------------
A-----3---------55---5---xx3-------xx7-----------------------------------------------------------------
E-----1---------33---3------------------xx5-----------------------------------------------------------------

E-----------------------------------------------------------------------------------------------------------------
B----------------------------------------------------------------------------------------------------------------
G-----------------------------------------------------------5----55----5---------------------------------Play 2x-
D-----3---33----3---------5----55----5------5----55----5-------7----77----7--------------------------
A-----3---33----3---------5----55----5------3----33----3-------7----77----7-------------------------
E-----1---11----1---------3----33----3---------------------------------5----55----5-------------------------

E-------------------------------------------------------------------------------------------------------------
B--------------------------------------------------------------------------------------------------------------
G--------------------------------xx5-----------------------------------------------------------
D-----3---------55---5---xx5-------xx7---------Pla y 2x----------------------------------
A-----3---------55---5---xx3-------xx7------------------------------------------------------------------------------
E-----1---------33---3------------------xx5-----------------------------------------------------------------

(Guitar 1- lead) . play only once.
E--------------------------------------------------------------5----\10---9----7-----------\10---8--
B---------------------------------------------------------------------------------------------8---------------
G----------------------------------------------------------------------------------------------------------------
D--------------------------------------------------------------------------------------------------------------
A--0------\5---4-------2------------\3---2-----------------------------------------------------------------
E-------------------------------------3--------------------------------------------------------------------------
(Guitar 2- rhythm)
E------------------------------------------------------------------------------------------------------------
B------------------------------------------------------------------------------------------------------------
G--------------------------------------------------------5----55----5----------------------------------------
D-----3----33----3--------5----55----5---5----55----5-------7----77----7---------------------------------------
A-----3----33----3--------5----55----5---3----33----3-------7----77----7---------------------------------------- 
E-----1----11----1--------3----33----3-------------------------------5----55----5----------------------------
Play Guitar here twice, keeping in time with guitar 1, then play guitar 2 one extra time.
Then for the very last bit:
(Guitar 1- lead) Clean
E-------------------3-------------------3---------------------7------5-------------------------------------
B------------------------------------------------------------------------------------------------5--------3-
G------------7-------------------7--------------------7----------------------------------------------------Play 2x
D---5--------------------5----------------------7-------------------------------------------------------
A-------------------------------------------------------------------------------------------------------------
E--------------------------------------------------------------------------------------------------------------
                                                                        
E----3----------------------------3---------------------3--------------7--------------------------------
B-----------------------------------------------------------------------------------------------------------
G-----------------------7---------------------7---------------------0----------------------------2x--------
D------------------5-------5-----------5-------0--------------------------------------------------
A-----------------------------------------------------------------------------------------------------------
E-----------------------------------------------------------------------------------------------------------

(Guitar 2- Rhythm)
E---------------------------------------------------------------------------------------------------
B---------------------------------------------------------------------------------------------------
G--------------------------------xx5----------------------------------------------------------------
D-----3---------55---5---xx5-------xx7--------------------------Play 4x-------------------
A-----3---------55---5---xx3-------xx7-----------------------------------------------------------------
E-----1---------33---3------------------xx5----------------------------------------------------------

Well that's it. It's in the right order and everything, so have fun with it. If there are any mistakes, sorry. 
Please rate it. i want to know if it's any good.

Comments about this tab

Relient rocker - 2005-07-30

rock on! man that was awsome. that was correct!
.


Dani_Boy - 2006-05-12

I've gotta try this out. It's such an awesome song. I'll tell you what I think when I've tried it, but it seems pretty good.


Dani_Boy - 2006-05-12

It would have been nice if you spaced it out a bit though. Makes it much easier to read.


Dani_Boy - 2006-05-12

I've tried it out a bit now and it's not as good as I thought. First of all, this song is in Drop D. You need it for that chord in the chorus with the scratchings. Many parts are a bit off. I like it though, it gives you a very good start to know how to play the song. You must have spent some time with this tab and I appreciate that. It's far from perfect, but it's good. Keep it up!


Add a comment/correction

Complimentary Christian Ringtones
Dadamobile and CGR have teamed up to bring your favorite Christian artists right to your phone. Sign up today and get 10 complementary ringtones!
Tab Country
Did you know CGR has a sister site w/ country guitar tabs? Well we do! Its called Tab Country. It has a great archive with a lot of country tabs.
Rockin Tabs
Are you looking for a site that has rock guitar tabs? Then Rockintabs.com is the place for you. It is a budding site with many rock guitar tabs. Submit your tab today.
Tab Gallery
Tab Gallery has a compilation of christian, rock, and country tabs all in one place. Come visit us.